>
 >
Leave No Man Behind

Leave No Man Behind Guitar Tabs

Zimmer Hans - Leave No Man Behind chords, tabs, tablatures, lyrics

Guitar lessons | Add/correct | Request | Top 50 tabs Artists:  A B C D E F G H I J K L M N O P Q R S T U V W X Y Z 0-9

Leave No Man Behind Guitar Tabs – Zimmer Hans

CD, Sheet music, Poster

Do you like Leave No Man Behind? Share with your friends now
ChordsTabs
Tuning: Standard. (E A D G B E)

A very simple tab that just follows the main notes that the piano plays during the whole
song. Gonna figure out a strumming version so that the 2 versions can be played together.
Makes the song nice. Get a flute,2 guitars,and a piano to play it together.You don't need
the whole band.Hahaha.Get someone on the drum rolls and it'd be even better.(For best
results,go buy the official scores and ask your brass band to play it... zZz......)

Version 1.5 - Finally finished the chords version of it.Don't forget to check
              'em out. 12th April 2004
Version 1.4 - moved a paragraph of words down a little... =P 11th January 2004
Version 1.3 - corrected 3 wrong notes in Verse 4. 9th January 2004
Version 1.1 - Corrected a missing note in the Bridge.  8th January 2004
Version 1 - First release.  8th January 2004

The tabs are written in full order of how the song is played,so just follow the tabs from
top to bottom and you would have played the whole song.For those who have never heard the
song before,you have to hear it to get the timings right.Feel free to write comments
about how this part should sound,how that part should sound,and I'll look into your
comments and figure out whether it really should be played like that,then update the tabs
as necessary.

Playing notes : Treble shouldn't be too loud so it doesn't sound like a guitar playing
and at least still sounds like a piano.Fiddle around with the Bass,I used a electric
guitar to play it,Clean,bass full,middle at about 3/4 to 4/5 and treble at middle.Pickup
selector between Bridge and middle pickups,tone at 5,volume on guitar full.

Intro
e|---------------------------------------------------------------------------|
B|---------------------------------------------------------------------------|
G|---------------------------------------------------------------------------|
D|-----7------7-----7------7-------------------------------------------------|
A|---5------5-----5------5---------------------------------------------------|
E|---------------------------------------------------------------------------|

Verse 1
e|--------5~-----------------------------------------------------------------|
B|--3~--3-----3-1~-3-5--6-5-3~-----------------------------------------------|
G|---------------------------------------------------------------------------|
D|---------------------------------------------------------------------------|
A|---------------------------------------------------------------------------|
E|---------------------------------------------------------------------------|

Verse 2
e|--------5~--5-3~-----------------------------------------------------------|
B|--3~--3-----------5-1-3~---------------------------------------------------|
G|---------------------------------------------------------------------------|
D|---------------------------------------------------------------------------|
A|---------------------------------------------------------------------------|
E|---------------------------------------------------------------------------|



Verse 1
e|--------5~-----------------------------------------------------------------|
B|--3~--3-----3-1~-3-5--6-5-3~-----------------------------------------------|
G|---------------------------------------------------------------------------|
D|---------------------------------------------------------------------------|
A|---------------------------------------------------------------------------|
E|---------------------------------------------------------------------------|

Verse 3
e|---------------------------------------------------------------------------|
B|----3--5--6--8--6--5---3-1-3~----------------------------------------------|
G|-2-------------------------------------------------------------------------|
D|---------------------------------------------------------------------------|
A|---------------------------------------------------------------------------|
E|---------------------------------------------------------------------------|

Chorus 1
e|--8~--7~--10~-------8~--7~-------------------------------------------------|
B|---------------10~----------8~--10~----------------------------------------|
G|---------------------------------------------------------------------------|
D|---------------------------------------------------------------------------|
A|---------------------------------------------------------------------------|
E|---------------------------------------------------------------------------|

Chorus 2
e|--10~--9~-------7~---------------------------------------------------------|
B|-----------10~------8~--7~-------------------------------------------------|
G|----------------------------9~--7~-----------------------------------------|
D|---------------------------------------------------------------------------|
A|---------------------------------------------------------------------------|
E|---------------------------------------------------------------------------|

Chorus 1
e|--8~--7~--10~-------8~--7~-------------------------------------------------|
B|---------------10~----------8~--10~----------------------------------------|
G|---------------------------------------------------------------------------|
D|---------------------------------------------------------------------------|
A|---------------------------------------------------------------------------|
E|---------------------------------------------------------------------------|

Chorus 2
e|--10~--9~-------7~---------------------------------------------------------|
B|-----------10~------8~--7~-------------------------------------------------|
G|----------------------------9~--7~-----------------------------------------|
D|---------------------------------------------------------------------------|
A|---------------------------------------------------------------------------|
E|---------------------------------------------------------------------------|

Verse 1
e|--------5~-----------------------------------------------------------------|
B|--3~--3-----3-1~-3-5--6-5-3~-----------------------------------------------|
G|---------------------------------------------------------------------------|
D|---------------------------------------------------------------------------|
A|---------------------------------------------------------------------------|
E|---------------------------------------------------------------------------|

Verse 2
e|--------5~--5-3~-----------------------------------------------------------|
B|--3~--3-----------5-1-3~---------------------------------------------------|
G|---------------------------------------------------------------------------|
D|---------------------------------------------------------------------------|
A|---------------------------------------------------------------------------|
E|---------------------------------------------------------------------------|
Verse 1
e|--------5~-----------------------------------------------------------------|
B|--3~--3-----3-1~-3-5--6-5-3~-----------------------------------------------|
G|---------------------------------------------------------------------------|
D|---------------------------------------------------------------------------|
A|---------------------------------------------------------------------------|
E|---------------------------------------------------------------------------|
Verse 3
e|---------------------------------------------------------------------------|
B|----3--5--6--8--6--5---3-1-3~----------------------------------------------|
G|-2-------------------------------------------------------------------------|
D|---------------------------------------------------------------------------|
A|---------------------------------------------------------------------------|
E|---------------------------------------------------------------------------|

Verse 4
e|--------5~--7--8--7-5--7-5-3-------5---5--3---1-0-------------------------|
B|--3~--3-----------------------3---3----------------3-----------------------|
G|---------------------------------------------------------------------------|
D|---------------------------------------------------------------------------|
A|---------------------------------------------------------------------------|
E|---------------------------------------------------------------------------|

Verse 5
e|--------5~--7--8--7-5--7-5-3-----0-1h3-5---5--3---1-0---------------------|
B|--3~--3-----------------------3------------------------3-------------------|
G|---------------------------------------------------------------------------|
D|---------------------------------------------------------------------------|
A|---------------------------------------------------------------------------|
E|---------------------------------------------------------------------------|

Bridge
e|---------------------------------------------------------------------------|
B|----3---3--1--3--5--6---5-3--5------6---8-6--6-5-5---5--5-3-3--------------|
G|--2----------------------------5-------------------------------------------|
D|---------------------------------------------------------------------------|
A|---------------------------------------------------------------------------|
E|---------------------------------------------------------------------------|

Bridge
e|---------------------------------------------------------------------------|
B|----3---3--1--3--5--6---5-3--5------6---8-6--6-5-5---5--5-3-3--------------|
G|--2----------------------------5-------------------------------------------|
D|---------------------------------------------------------------------------|
A|---------------------------------------------------------------------------|
E|---------------------------------------------------------------------------|

Verse 1
e|--------5~-----------------------------------------------------------------|
B|--3~--3-----3-1~-3-5--6-5-3~-----------------------------------------------|
G|---------------------------------------------------------------------------|
D|---------------------------------------------------------------------------|
A|---------------------------------------------------------------------------|
E|---------------------------------------------------------------------------|

Verse 2
e|--------5~--5-3~-----------------------------------------------------------|
B|--3~--3-----------5-1-3~---------------------------------------------------|
G|---------------------------------------------------------------------------|
D|---------------------------------------------------------------------------|
A|---------------------------------------------------------------------------|
E|---------------------------------------------------------------------------|

Verse 1
e|--------5~-----------------------------------------------------------------|
B|--3~--3-----3-1~-3-5--6-5-3~-----------------------------------------------|
G|---------------------------------------------------------------------------|
D|---------------------------------------------------------------------------|
A|---------------------------------------------------------------------------|
E|---------------------------------------------------------------------------|
Verse 3
e|---------------------------------------------------------------------------|
B|----3--5--6--8--6--5---3-1-3~----------------------------------------------|
G|-2-------------------------------------------------------------------------|
D|---------------------------------------------------------------------------|
A|---------------------------------------------------------------------------|
E|---------------------------------------------------------------------------|

Chorus 1
e|--8~--7~--10~-------8~--7~-------------------------------------------------|
B|---------------10~----------8~--10~----------------------------------------|
G|---------------------------------------------------------------------------|
D|---------------------------------------------------------------------------|
A|---------------------------------------------------------------------------|
E|---------------------------------------------------------------------------|

Chorus 2
e|--10~--9~-------7~---------------------------------------------------------|
B|-----------10~------8~--7~-------------------------------------------------|
G|----------------------------9~--7~-----------------------------------------|
D|---------------------------------------------------------------------------|
A|---------------------------------------------------------------------------|
E|---------------------------------------------------------------------------|

The drums come in at around this part of the song...the ending drums.If you want to,you
could pluck each note a few times...to make the song more dramatic...That's just personal
preference...I feel it gives me a kind of...Well...sense of comradism when I play it like that.

Chorus 1
e|--8~--7~--10~-------8~--7~-------------------------------------------------|
B|---------------10~----------8~--10~----------------------------------------|
G|---------------------------------------------------------------------------|
D|---------------------------------------------------------------------------|
A|---------------------------------------------------------------------------|
E|---------------------------------------------------------------------------|

Chorus 2
e|--10~--9~-------7~---------------------------------------------------------|
B|-----------10~------8~--7~-------------------------------------------------|
G|----------------------------9~--7~-----------------------------------------|
D|---------------------------------------------------------------------------|
A|---------------------------------------------------------------------------|
E|---------------------------------------------------------------------------|

| /  slide up
| \  slide down
| h  hammer-on
| p  pull-off
| ~  vibrato
| +  harmonic
| x  Mute note





Comments


Popular Zimmer Hans tabs & chords
Gladiator Chords
Leave No Man Behind Chords
Face Off Tabs
Maximus Tabs
Nyah Tabs


Song lyrics



↑ Back to top | Tablatures and chords are parodies/interpretations of the original songs. You may use it for private study, scholarship, research or language learning purposes only
© 2014 AZChords.com Contact us | Privacy policy | DMCA | Add/correct tabs | Request tabs | Top 50 tabs