» » »

Zimmercress, Second Song Tabs (ver.1)

Artists:  A B C D E F G H I J K L M N O P Q R S T U V W X Y Z # 

Second Song Tabs (ver.1)

Zimmercress Tabs
 Rating:
4/5 (4 votes)
Second Song lessons Tabs too difficult? Try these video lessons and learn fast
                Written by Sean Havers
Drums written by Dane Woods
Bass written by Sean Havers and Edward Digby


Standard Tuning


(   Bend
)   Release
~   Sustain and vibrato
*   Palm mute
**  Heavy Palm Mute
/   Slide up
//  Slow slide up
\   Slide down
\\  Slow slide down
<x> Harmonic  {eg. play that note (x) as a harmonic}
x/  Pick Slide
x// Slow Pick Slide
b   Bend Chord
bb  Bend Chord Hard


Intro: Flanger and Delay
e-------------------------------------------
B------7-------5---------12-----------10----
G----7-------5--------12-----------10-------
D--7-----7/5-----5\12-------12/10-------10--
A-------------------------------------------
E-------------------------------------------


Intro Continued: Bass Over the top, deadened and clean
e----------------------------------------------------------------------
B----------------------------------------------------------------------
G--7--7--7--7--5--5--5--5--12--12--12--12--10--10--10--10--------------
D--7--7--7--7--5--5--5--5--12--12--12--12--10--10--10--10--------------
A--5--5--5--5--3--3--3--3--10--10--10--10-- 8-- 8-- 8-- 8--------------
E----------------------------------------------------------------------


Verse:
e-------------------------------------------------------------
B------7--------5----------12-----------10--------------------
G------7-7------5-5--------12-12--------10-10-----------------
D----7---7----5---5-----12----12-----10----10-----------------
A--5--------3--------10----------- 8--------------------------
E-------------------------------------------------------------


Outro:
e-------------------------------------------------------------
B------7--------9----------10-----------12--------------------
G------7-7------9-9--------10-10--------12-12-----------------
D----7---7----9---9-----10----10-----12----12-----------------
A--5--------7-------- 8-----------10--------------------------
E-------------------------------------------------------------

End on:
e--------
B--------
G--6-7/--
D--6-7/--
A--4-5/--
E--------
            
Submit corrections

comments powered by Disqus
↑ Back to top | Zimmercress Tabs for Second Song. Lyrics for acoustic guitar and electric guitar. Tablatures and chords are parodies/interpretations of the original songs. You may use it for private study, scholarship, research or language learning purposes only