>
 >
Alone

Alone Guitar Tabs

Zimmercress - Alone chords, tabs, tablatures, lyrics

Guitar lessons | Add/correct | Request | Top 50 tabs Artists:  A B C D E F G H I J K L M N O P Q R S T U V W X Y Z 0-9

Alone Guitar Tabs – Zimmercress

CD, Sheet music, Poster

Do you like Alone? Share with your friends now
Tabs
Written by Sean Havers

Standard Tuning


(   Bend
)   Release
~   Sustain and vibrato
*   Palm mute
**  Heavy Palm Mute
/   Slide up
//  Slow slide up
\   Slide down
\\  Slow slide down
<x> Harmonic  {eg. play that note (x) as a harmonic}
x/  Pick Slide
x// Slow Pick Slide
b   Bend Chord
bb  Bend Chord Hard


Verse:
e-------------------------------|-----------------------------------------------
B-------------------------------|-----------------------------------------------
G----------5--5--0--4-4-4-------|--------------5--5--5-----4--4--4/--9----9--9--
D-5--5--0--5--5--0--4-4-4-2--2--|--5--5--5--0--5--5--5--0--4--4--4/--9----9--9--
A-5--5--0--3--3--0--2-2-2-2--2--|--5--5--5--0--3--3--3--0--2--2--2/--7----7--7--
E-3--3--0-----------------0--0--|--3--3--3--0-----------0------------0----0--0--

Chorus:
e-----------------------------------------------------------------------
B---------------------5-5-5-x-------------------------------------------
G-5----5-xx-----------7-7-7-x-------------------------------------------
D-5----5-xx--5---5-xx-7-7-7-x---7----7----------------------------------
A-7----7-xx--5---5-xx-5-5-5-x---7----7----------------------------------
E-0----0-----3---3-xx-----------5----5----------------------------------

Melody 4 chorus
e-------------|---------------------------------------------------------
B-------------|---------------------------------------------------------
G-------------|---------------------------------------------------------
D-4/5--4-5-2~-|:-0------------------------------------------------------
A-------------|---------------------------------------------------------
E-------------|---------------------------------------------------------

Melody 4 verse:
e----------------------------------------------------------------------
B----------------------------------------------------------------------
G--4-4-4-4/9---7--7\\4---------4--4--5----4--4-------------------------
D---------------------------5-------------------5--5-------------------
A----------------------------------------------------------------------
E----------------------------------------------------------------------





Comments


Popular Zimmercress tabs & chords
First Tabs
Guess Who Tabs
Izzy's Got A Song Tabs
Pure Depressance Tabs
Second Song Tabs
Smuke Tabs
Speed Metal Riff Tabs
Sraight Off Tabs
Trevor Tabs


Song lyrics



↑ Back to top | Tablatures and chords are parodies/interpretations of the original songs. You may use it for private study, scholarship, research or language learning purposes only
© 2014 AZChords.com Contact us | Privacy policy | DMCA | Add/correct tabs | Request tabs | Top 50 tabs