» » »

Zike, Your Soul Belongs To Me Bass tabs (ver.1)

Artists:  A B C D E F G H I J K L M N O P Q R S T U V W X Y Z # 

Your Soul Belongs To Me Bass tabs (ver.1)

Zike Tabs
Rating:
0/5 (0 votes)
Your Soul Belongs To Me lessons Tabs too difficult? Try these video lessons and learn fast
                band:Zike
album:Frozen World

Tuning:1/2 step down

intro pt.1
Gb|-------------|
Db|-------------|
Ab|-------------| play twice
Eb|---12/0~~~~--|

intro pt.2 - when the drums kick in
Gb|-----------------------------------|
Db|-----------------------------------|
Ab|-----7-----5----5-6-7--------------|
Eb|-0-0----0-----0--------------------|

song pt.1/chorus
Gb|-----------------------------------------|
Db|---------------5---5----5----5-----------|
Ab|-----------------------------------------|
Eb|-3333333333-33----33--33--33-------------|

song pt.2/verse
Gb|-----------------------------------------|
Db|-----------------------------------------|
Ab|-7-7-7-7-5-5h7-7-7-7-7-------------------|
Eb|-----------------------88----------------|

song pt.3
Gb|--------------------------|
Db|--------------------------|
Ab|-------3-2~~--------------|
Eb|-/0-0--------3-2-1--------|

Solo
Gb|----------------------------|
Db|----------------------------|
Ab|----------------------------|
Eb|-0-0-0-0-0-0-1-1------------|

Listen to the song for timing. It's a simple song once you have the parts down.


| /  slide up
| \  slide down
| h  hammer-on
| p  pull-off
| ~  vibrato
| +  harmonic
| x  Mute note
            

comments powered by Disqus
↑ Back to top | Zike Bass for Your Soul Belongs To Me. Lyrics for acoustic guitar and electric guitar. Tablatures and chords are parodies/interpretations of the original songs. You may use it for private study, scholarship, research or language learning purposes only