» » »

Zike, Frozen World Bass tabs (ver.1)

Artists:  A B C D E F G H I J K L M N O P Q R S T U V W X Y Z # 

Frozen World Bass tabs (ver.1)

Zike Tabs
 Rating:
4/5 (4 votes)
Frozen World lessons Tabs too difficult? Try these video lessons and learn fast
                
Tuning:half step down

Intro/Main Riff
Gb|-------------------------------------------------------------------------|
Db|-------------------------------------------------------------------------|
Ab|-----------4---3---2-----------------------------------------------------|
Eb|-(1111)--2---2---2---2-1111----------------------------------------------|

Verse
Gb|-------------------------------------------------------------------------|
Db|-------------------------4-3-2----2-3-4----------------------------------|
Ab|----------33-2-----------------4-----------------------------------------|
Eb|-/2222222-------2222222--------------------------------------------------|

Main riff change up (bass only does this)
+after the riff is played twice, then play this twice.
Gb|-------------------------------------------------------------------------|
Db|----11--10--9------------------------------------------------------------|
Ab|--9---9---9---9-8888-----------------------------------------------------|
Eb|-------------------------------------------------------------------------|

Chrous
Gb|------------9------------------------------------------------------------|
Db|-97h97h97h9---4--4--4--42------------------------------------------------|
Ab|-77777777777-------------------------------------------------------------|
Eb|-00000000000--222222222--------------------------------------------------|

Outro variation 
Gb|----------------11-10-9--------------------------------------------------|
Db|----11--10---9----------11-10--------------------------------------------|
Ab|--9---9---9--------------------------------------------------------------|
Eb|-------------------------------------------------------------------------|


| /  slide up
| \  slide down
| h  hammer-on
| p  pull-off
| ~  vibrato
| +  harmonic
| x  Mute note
            
Submit corrections

comments powered by Disqus
↑ Back to top | Zike Bass for Frozen World. Lyrics for acoustic guitar and electric guitar. Tablatures and chords are parodies/interpretations of the original songs. You may use it for private study, scholarship, research or language learning purposes only