» » »

Zike, Curse Of The Pentagram Bass tabs (ver.1)

Artists:  A B C D E F G H I J K L M N O P Q R S T U V W X Y Z # 

Curse Of The Pentagram Bass tabs (ver.1)

Zike Tabs
 Rating:
4/5 (4 votes)
Curse Of The Pentagram lessons Tabs too difficult? Try these video lessons and learn fast
                band:Zike


Tuning:half step down

verse pt.1
Gb|-------------------------------------------------|
Db|-------------------------------------------------|
Ab|---------------------------4-4-1-1---------------|
Eb|-3XX3XX3XX-4444--3XX3XX3XX-----------------------|

verse pt.2
Gb|-----------------------------------------------------------------------|
Db|-----------------------------------------------------------------------|
Ab|----------------------44-----------------------------------------------|
Eb|-3p0000-3p0000-3p0000----3p0000-3p0000-3p0000-1-1-4-4------------------|

Chorus
Gb|----------------------|------------------------------|
Db|----------------------|------------------------------|
Ab|-7777------------8888-|-7777-------------------------|
Eb|------8888-6666-------|------8888-6666-1111----------|

bridge 
Gb|-------------------------------|
Db|-------------------------------|
Ab|-5555-----------6666-----------|
Eb|------6666-4444----------------|

ending of bridge/in to outro
Gb|------------8--8----------|
Db|--------------------------|
Ab|-6-6-6-6-6----6-----------|
Eb|--------------------------|

Outro
Gb|--------------------------|-7--------------8----------|
Db|--------------------------|-------86------------------|
Ab|-5~~~~--------------6~~~~-|-5~~~~----------------6~~~~------------|
Eb|-------6~~~~-4~~~~--------|-------6~~~~--4~~~~--------------------|


| /  slide up
| \  slide down
| h  hammer-on
| p  pull-off
| ~  vibrato
| +  harmonic
| x  Mute note
            
Submit corrections

comments powered by Disqus
↑ Back to top | Zike Bass for Curse Of The Pentagram. Lyrics for acoustic guitar and electric guitar. Tablatures and chords are parodies/interpretations of the original songs. You may use it for private study, scholarship, research or language learning purposes only