» » »

Zike, Countessa Bass tabs (ver.1)

Artists:  A B C D E F G H I J K L M N O P Q R S T U V W X Y Z # 

Countessa Bass tabs (ver.1)

Zike Tabs
Rating:
0/5 (0 votes)
Countessa lessons Tabs too difficult? Try these video lessons and learn fast
                band:Zike
album:Frozen World

Tuning:half step down

Intro
Gb|---------------------------------------------------------|
Db|---------------------------------------------------------|
Ab|---------------------------------------------------------|
Eb|-0-0-12h13p12/-33-22--0-0-12h13p12/-33-66----------------|

Verse
Gb|---------------------------------------------------------------|
Db|------------------------33--------------------------5-7--------|
Ab|----7------------7-------------7----------7-0-5-7--------------|
Eb|-0----0-11---0-----0--------0----0-11--0-----------------------|

Chorus
Gb|-------9----------9-----------9--------------------------|
Db|----9----9-----9----9------9-----9-----------------------|
Ab|-7-------------------------------------------------------|
Eb|------------8----------7------------5555-3333------------|

2nd and 3rd Chorus (after the chorus is played twice)
Gb|--------9/11-9--------9/11-9---------9/11-9---------------------|
Db|----9--------------9--------------9-----------------------------|
Ab|-7--------------------------------------------------------------|
Eb|---------------8--------------7--------------5555-3333----------|

breakdown 
Gb|------------------------------------------------------------------------|
Db|----------------------------------------5------------------5------------|
Ab|---------------7-7777-55-33-2---7-77-5------------777-5h7-----55-33-2---|
Eb|-0--3---/6-2---0----------------0----------6-2--------------------------|

during the solo play the verse

| /  slide up
| \  slide down
| h  hammer-on
| p  pull-off
| ~  vibrato
| +  harmonic
| x  Mute note
            
Submit corrections

comments powered by Disqus
↑ Back to top | Zike Bass for Countessa. Lyrics for acoustic guitar and electric guitar. Tablatures and chords are parodies/interpretations of the original songs. You may use it for private study, scholarship, research or language learning purposes only