>
 >
Temptation

Temptation Guitar Tabs

Ziggens - Temptation chords, tabs, tablatures, lyrics

Guitar lessons | Add/correct | Request | Top 50 tabs Artists:  A B C D E F G H I J K L M N O P Q R S T U V W X Y Z 0-9

Temptation Guitar Tabs – Ziggens

CD, Sheet music, Poster

Do you like Temptation? Share with your friends now
Tabs
Temptation - The Ziggens
Self-Titled LP

Tuning: All three guitars Standard tuning

Guitar 1:
e|-------------------------------------------------------------|
B|-------------------------------------------------------------|
G|-------------------------------------------------------------|
D|-4/5-5-5--5-5-5-4/5-5-5--5-5-5-4/5-5-5--5-5-5-4/5-5-5--5-5-5-|
A|-4/5-5-5--5-5-5-4/5-5-5--5-5-5-4/5-5-5--5-5-5-4/5-5-5--5-5-5-|
E|-2/3-3-3--3-3-3-2/3-3-3--3-3-3-2/3-3-3--3-3-3-2/3-3-3--3-3-3-|

Guitar 1:
e|-----------------------------------------------------------------|
B|-----------------------------------------------------------------|
G|-----------------------------------------------------------------|
D|-5-5-5-5-5-5-5-5-5-5-5-5-5-5-5-5-4-4-4-4-4-4-4-4-4-4-4-4-4-4-4-4-|
A|-5-5-5-5-5-5-5-5-5-5-5-5-5-5-5-5-4-4-4-4-4-4-4-4-4-4-4-4-4-4-4-4-|
E|-3-3-3-3-3-3-3-3-3-3-3-3-3-3-3-3-2-2-2-2-2-2-2-2-2-2-2-2-2-2-2-2-| x4
Guitar 2:
e|-----------------------------------------------------------------|
B|-----------------------------------------------------------------|
G|-----------------------------------------------------------------|
D|-----------------------------------------------------------------|
A|-5-5-5-5-5-5-5-5-5-5-5-5-5-5-5-5-4-4-4-4-4-4-4-4-4-4-4-4-4-4-4-4-|
E|-3-3-3-3-3-3-3-3-3-3-3-3-3-3-3-3-2-2-2-2-2-2-2-2-2-2-2-2-2-2-2-2-| x4
  [X-X-X-X-X-X-X-X-X-X-X-X-X-X-X-X-X-X-X-X-X-X-X-X-X-X-X-X-X-X-X-X]

Guitar 1:
e|---------------------------------|
B|---------------------------------|
G|---------------------------------|
D|-4-4-4-4-4-4-4-4-4-4-4-4-4-4-4-4-|
A|-4-4-4-4-4-4-4-4-4-4-4-4-4-4-4-4-|
E|-2-2-2-2-2-2-2-2-2-2-2-2-2-2-2-2-|
Guitar 2:
e|---------------------------------|
B|---------------------------------|
G|---------------------------------|
D|-------------------------4-4-4-4-|
A|-4-4-4-4-4-4-4-4-4-4-4-4-4-4-4-4-|
E|-2-2-2-2-2-2-2-2-2-2-2-2-2-2-2-2-|
  [X-X-X-X]


Guitars 1 & 2:
e|-------------------------------------------------|
B|-------------------------------------------------|
G|-7-------7\-----------5--------5--5--4--5--5--4--|
D|-7-------7\-3-------3-5--------5--5--4--5--5--4--|
A|-5-------5\-3-------3-3--------3--3--2--3--3--2--|
E|------------1-------1----------------------------|

Guitars 1 & 2:
e|-------------------------------------------------|
B|-------------------------------------------------|
G|-7-------7\-----------5--------5--5--5--5--5--5--|
D|-7-------7\-3-------3-5--------5--5--5--5--5--5--|
A|-5-------5\-3-------3-3--------3--3--3--3--3--3--|
E|------------1-------1----------------------------|

Guitars 1 & 2:
e|-------3-4^-4^-4p3p1-|
B|-3-3-6---------------|
G|---------------------|
D|---------------------|
A|---------------------|
E|---------------------|

Guitar 1:
e|-----------------------------------------------------------------|
B|-----------------------------------------------------------------|
G|-----------------------------------------------------------------|
D|-5-5-5-5-5-5-5-5-5-5-5-5-5-5-5-5-4-4-4-4-4-4-4-4-4-4-4-4-4-4-4-4-|
A|-5-5-5-5-5-5-5-5-5-5-5-5-5-5-5-5-4-4-4-4-4-4-4-4-4-4-4-4-4-4-4-4-|
E|-3-3-3-3-3-3-3-3-3-3-3-3-3-3-3-3-2-2-2-2-2-2-2-2-2-2-2-2-2-2-2-2-| x4
Guitar 2:
e|-----------------------------------------------------------------|
B|-----------------------------------------------------------------|
G|-----------------------------------------------------------------|
D|-----------------------------------------------------------------|
A|-5-5-5-5-5-5-5-5-5-5-5-5-5-5-5-5-4-4-4-4-4-4-4-4-4-4-4-4-4-4-4-4-|
E|-3-3-3-3-3-3-3-3-3-3-3-3-3-3-3-3-2-2-2-2-2-2-2-2-2-2-2-2-2-2-2-2-| x4
  [X-X-X-X-X-X-X-X-X-X-X-X-X-X-X-X-X-X-X-X-X-X-X-X-X-X-X-X-X-X-X-X]

Guitar 1:
e|---------------------------------|
B|---------------------------------|
G|---------------------------------|
D|-4-4-4-4-4-4-4-4-4-4-4-4-4-4-4-4-|
A|-4-4-4-4-4-4-4-4-4-4-4-4-4-4-4-4-|
E|-2-2-2-2-2-2-2-2-2-2-2-2-2-2-2-2-|
Guitar 2:
e|---------------------------------|
B|---------------------------------|
G|---------------------------------|
D|-------------------------4-4-4-4-|
A|-4-4-4-4-4-4-4-4-4-4-4-4-4-4-4-4-|
E|-2-2-2-2-2-2-2-2-2-2-2-2-2-2-2-2-|
  [X-X-X-X]

Guitars 1 & 2:
e|-------------------------------------------------|
B|-------------------------------------------------|
G|-7-------7\-----------5--------5--5--4--5--5--4--|
D|-7-------7\-3-------3-5--------5--5--4--5--5--4--|
A|-5-------5\-3-------3-3--------3--3--2--3--3--2--|
E|------------1-------1----------------------------|

Guitars 1 & 2:
e|-------------------------------------------------|
B|-------------------------------------------------|
G|-7-------7\-----------5--------5--5--5--5--5--5--|
D|-7-------7\-3-------3-5--------5--5--5--5--5--5--|
A|-5-------5\-3-------3-3--------3--3--3--3--3--3--|
E|------------1-------1----------------------------|

Guitars 1 & 2:
e|-------3-4^-4^-4p3p1-|
B|-3-3-6---------------|
G|---------------------|
D|---------------------|
A|---------------------|
E|---------------------|

Guitar 1:
e|---------------------------------7-7--7-7--|
B|-8----8----8----8----7----7----7-7-7--7-7--|
G|-7----7----7----7----6----6----6-6-6--6-6--|
D|-5----5----5----5----4----4----4-----------|
A|-------------------------------------------|
E|-------------------------------------------| x3
Guitar 2:
e|------------------------------------------------------------------|
B|------------------------------------------------------------------|
G|------------------------------------------------------------------|
D|---------------------------------------------------------4--4--4--|
A|-5-5-5-5-5-5-5-5-5-5-5-5-5-5-5-5-4-4-4-4-4-4-4-4-4-4-4-4-4--4--4--|
E|-3-3-3-3-3-3-3-3-3-3-3-3-3-3-3-3-2-2-2-2-2-2-2-2-2-2-2-2-2--2--2--| x3
  [X-X-X-X-X-X-X-X-X-X-X-X-X-X-X-X-X-X-X-X-X-X-X-X-X-X-X-X]

Guitar 1:
e|-----------------------------------------|
B|-8----8----8----8----7----7----7----7----|
G|-7----7----7----7----6----6----6----6----|
D|-5----5----5----5----4----4----4----4----|
A|-----------------------------------------|
E|-----------------------------------------|
Guitar 2:
e|-----------------------------------------------------------------|
B|-----------------------------------------------------------------|
G|-----------------------------------------------------------------|
D|-----------------------------------------------------------------|
A|-5-5-5-5-5-5-5-5-5-5-5-5-5-5-5-5-4-4-4-4-4-4-4-4-4-4-4-4-4-4-4-4-|
E|-3-3-3-3-3-3-3-3-3-3-3-3-3-3-3-3-2-2-2-2-2-2-2-2-2-2-2-2-2-2-2-2-|
  [X-X-X-X-X-X-X-X-X-X-X-X-X-X-X-X-X-X-X-X-X-X-X-X-X-X-X-X-X-X-X-X]

Guitar 3
e|-----------------------------------------------------------------|
B|-7h8-7h8---------7h8-7h8---------6h7-6h7---------6h7-6h7---------|
G|---------6h7-6h7---------6h7-6h7---------5h6-5h6---------5h6-5h6-|
D|-----------------------------------------------------------------|
A|-----------------------------------------------------------------|
E|-----------------------------------------------------------------|
Guitar 1:
e|-----------------------------------------|
B|-8----8----8----8----7----7----7----7----|
G|-7----7----7----7----6----6----6----6----|
D|-5----5----5----5----4----4----4----4----|
A|-----------------------------------------|
E|-----------------------------------------|
Guitar 2:
e|-----------------------------------------------------------------|
B|-----------------------------------------------------------------|
G|-----------------------------------------------------------------|
D|-----------------------------------------------------------------|
A|-5-5-5-5-5-5-5-5-5-5-5-5-5-5-5-5-4-4-4-4-4-4-4-4-4-4-4-4-4-4-4-4-|
E|-3-3-3-3-3-3-3-3-3-3-3-3-3-3-3-3-2-2-2-2-2-2-2-2-2-2-2-2-2-2-2-2-|
  [X-X-X-X-X-X-X-X-X-X-X-X-X-X-X-X-X-X-X-X-X-X-X-X-X-X-X-X-X-X-X-X]

Guitar 3:
e|-----------------------------------------------------|
B|-7h8-7h8---------7h8-7h8----------7------------------|
G|---------6h7-6h7---------6h7-6h7--6----6----6h7p6----|
D|-----------------------------------------------------|
A|-----------------------------------------------------|
E|-----------------------------------------------------|
Guitar 1:
e|-----------------------------------------|
B|-8----8----8----8----7----7----7----7----|
G|-7----7----7----7----6----6----6----6----|
D|-5----5----5----5----4----4----4----4----|
A|-----------------------------------------|
E|-----------------------------------------|
Guitar 2:
e|-----------------------------------------------------------------|
B|-----------------------------------------------------------------|
G|-----------------------------------------------------------------|
D|-----------------------------------------------------------------|
A|-5-5-5-5-5-5-5-5-5-5-5-5-5-5-5-5-4-4-4-4-4-4-4-4-4-4-4-4-4-4-4-4-|
E|-3-3-3-3-3-3-3-3-3-3-3-3-3-3-3-3-2-2-2-2-2-2-2-2-2-2-2-2-2-2-2-2-|
  [X-X-X-X-X-X-X-X-X-X-X-X-X-X-X-X-X-X-X-X-X-X-X-X-X-X-X-X-X-X-X-X]

Guitar 3
e|-----------------------------------------------------------------|
B|-7h8-7h8---------7h8-7h8---------6h7-6h7---------6h7-6h7---------|
G|---------6h7-6h7---------6h7-6h7---------5h6-5h6---------5h6-5h6-|
D|-----------------------------------------------------------------|
A|-----------------------------------------------------------------|
E|-----------------------------------------------------------------|
Guitar 1:
e|-----------------------------------------|
B|-8----8----8----8----7----7----7----7----|
G|-7----7----7----7----6----6----6----6----|
D|-5----5----5----5----4----4----4----4----|
A|-----------------------------------------|
E|-----------------------------------------|
Guitar 2:
e|-----------------------------------------------------------------|
B|-----------------------------------------------------------------|
G|-----------------------------------------------------------------|
D|-----------------------------------------------------------------|
A|-5-5-5-5-5-5-5-5-5-5-5-5-5-5-5-5-4-4-4-4-4-4-4-4-4-4-4-4-4-4-4-4-|
E|-3-3-3-3-3-3-3-3-3-3-3-3-3-3-3-3-2-2-2-2-2-2-2-2-2-2-2-2-2-2-2-2-|
  [X-X-X-X-X-X-X-X-X-X-X-X-X-X-X-X-X-X-X-X-X-X-X-X-X-X-X-X-X-X-X-X]

Guitar 3:
e|---------------------------------------|
B|-7h8-7h8---------7h8-7h8----------7----|
G|---------6h7-6h7---------6h7-6h7--6----|
D|---------------------------------------|
A|---------------------------------------|
E|---------------------------------------|
Guitar 1:
e|--------------------------|
B|-8----8----8----8----7----|
G|-7----7----7----7----6----|
D|-5----5----5----5----4----|
A|--------------------------|
E|--------------------------|
Guitar 2:
e|--------------------------------------|
B|--------------------------------------|
G|--------------------------------------|
D|--------------------------------------|
A|-5-5-5-5-5-5-5-5-5-5-5-5-5-5-5-5-4----|
E|-3-3-3-3-3-3-3-3-3-3-3-3-3-3-3-3-2----|
  [X-X-X-X-X-X-X-X-X-X-X-X-X-X-X-X]

Guitar 1:
e|-------------------------------------------------------------|
B|-------------------------------------------------------------|
G|-------------------------------------------------------------|
D|-4/5-5-5--5-5-5-4/5-5-5--5-5-5-4/5-5-5--5-5-5-4/5-5-5--5-5-5-|
A|-4/5-5-5--5-5-5-4/5-5-5--5-5-5-4/5-5-5--5-5-5-4/5-5-5--5-5-5-|
E|-2/3-3-3--3-3-3-2/3-3-3--3-3-3-2/3-3-3--3-3-3-2/3-3-3--3-3-3-|

Guitar 1:
e|-----------------------------------------------------------------|
B|-----------------------------------------------------------------|
G|-----------------------------------------------------------------|
D|-5-5-5-5-5-5-5-5-5-5-5-5-5-5-5-5-4-4-4-4-4-4-4-4-4-4-4-4-4-4-4-4-|
A|-5-5-5-5-5-5-5-5-5-5-5-5-5-5-5-5-4-4-4-4-4-4-4-4-4-4-4-4-4-4-4-4-|
E|-3-3-3-3-3-3-3-3-3-3-3-3-3-3-3-3-2-2-2-2-2-2-2-2-2-2-2-2-2-2-2-2-| x4
Guitar 2:
e|-----------------------------------------------------------------|
B|-----------------------------------------------------------------|
G|-----------------------------------------------------------------|
D|-----------------------------------------------------------------|
A|-5-5-5-5-5-5-5-5-5-5-5-5-5-5-5-5-4-4-4-4-4-4-4-4-4-4-4-4-4-4-4-4-|
E|-3-3-3-3-3-3-3-3-3-3-3-3-3-3-3-3-2-2-2-2-2-2-2-2-2-2-2-2-2-2-2-2-| x4
  [X-X-X-X-X-X-X-X-X-X-X-X-X-X-X-X-X-X-X-X-X-X-X-X-X-X-X-X-X-X-X-X]

Guitar 1:
e|---------------------------------|
B|---------------------------------|
G|---------------------------------|
D|-4-4-4-4-4-4-4-4-4-4-4-4-4-4-4-4-|
A|-4-4-4-4-4-4-4-4-4-4-4-4-4-4-4-4-|
E|-2-2-2-2-2-2-2-2-2-2-2-2-2-2-2-2-|
Guitar 2:
e|---------------------------------|
B|---------------------------------|
G|---------------------------------|
D|-------------------------4-4-4-4-|
A|-4-4-4-4-4-4-4-4-4-4-4-4-4-4-4-4-|
E|-2-2-2-2-2-2-2-2-2-2-2-2-2-2-2-2-|
  [X-X-X-X]

Guitars 1 & 2:
e|-------------------------------------------------|
B|-------------------------------------------------|
G|-7-------7\-----------5--------5--5--4--5--5--4--|
D|-7-------7\-3-------3-5--------5--5--4--5--5--4--|
A|-5-------5\-3-------3-3--------3--3--2--3--3--2--|
E|------------1-------1----------------------------|

Guitars 1 & 2:
e|-------------------------------------------------|
B|-------------------------------------------------|
G|-7-------7\-----------5--------5--5--5--5--5--5--|
D|-7-------7\-3-------3-5--------5--5--5--5--5--5--|
A|-5-------5\-3-------3-3--------3--3--3--3--3--3--|
E|------------1-------1----------------------------|

Guitars 1 & 2:
e|-------3-4^-4^-4p3p1-|
B|-3-3-6---------------|
G|---------------------|
D|---------------------|
A|---------------------|
E|---------------------|

Guitar 1:
e|---------------------------------7-7--7-7--|
B|-8----8----8----8----7----7----7-7-7--7-7--|
G|-7----7----7----7----6----6----6-6-6--6-6--|
D|-5----5----5----5----4----4----4-----------|
A|-------------------------------------------|
E|-------------------------------------------| x3
Guitar 2:
e|------------------------------------------------------------------|
B|------------------------------------------------------------------|
G|------------------------------------------------------------------|
D|---------------------------------------------------------4--4--4--|
A|-5-5-5-5-5-5-5-5-5-5-5-5-5-5-5-5-4-4-4-4-4-4-4-4-4-4-4-4-4--4--4--|
E|-3-3-3-3-3-3-3-3-3-3-3-3-3-3-3-3-2-2-2-2-2-2-2-2-2-2-2-2-2--2--2--| x3
  [X-X-X-X-X-X-X-X-X-X-X-X-X-X-X-X-X-X-X-X-X-X-X-X-X-X-X-X]

Guitar 1:
e|-----------------------------------------|
B|-8----8----8----8----7----7----7----7----|
G|-7----7----7----7----6----6----6----6----|
D|-5----5----5----5----4----4----4----4----|
A|-----------------------------------------|
E|-----------------------------------------|
Guitar 2:
e|-----------------------------------------------------------------|
B|-----------------------------------------------------------------|
G|-----------------------------------------------------------------|
D|-----------------------------------------------------------------|
A|-5-5-5-5-5-5-5-5-5-5-5-5-5-5-5-5-4-4-4-4-4-4-4-4-4-4-4-4-4-4-4-4-|
E|-3-3-3-3-3-3-3-3-3-3-3-3-3-3-3-3-2-2-2-2-2-2-2-2-2-2-2-2-2-2-2-2-|
  [X-X-X-X-X-X-X-X-X-X-X-X-X-X-X-X-X-X-X-X-X-X-X-X-X-X-X-X-X-X-X-X]

Guitar 1:
e|-3---------3---------2---------2---------|
B|------3---------3---------2---------2----|
G|-----------------------------------------|
D|-----------------------------------------|
A|-----------------------------------------|
E|-----------------------------------------| x3
Guitar 2:
e|-----------------------------------------------------------------|
B|-----------------------------------------------------------------|
G|-----------------------------------------------------------------|
D|-----------------------------------------------------------------|
A|-5-5-5-5-5-5-5-5-5-5-5-5-5-5-5-5-4-4-4-4-4-4-4-4-4-4-4-4-4-4-4-4-|
E|-3-3-3-3-3-3-3-3-3-3-3-3-3-3-3-3-2-2-2-2-2-2-2-2-2-2-2-2-2-2-2-2-| x3
  [X-X-X-X-X-X-X-X-X-X-X-X-X-X-X-X-X-X-X-X-X-X-X-X-X-X-X-X-X-X-X-X]

Guitar 1:
e|-3---------3---------2----|
B|------3---------3---------|
G|--------------------------|
D|--------------------------|
A|--------------------------|
E|--------------------------|
Guitar 2:
e|--------------------------------------|
B|--------------------------------------|
G|--------------------------------------|
D|--------------------------------------|
A|-5-5-5-5-5-5-5-5-5-5-5-5-5-5-5-5-4----|
E|-3-3-3-3-3-3-3-3-3-3-3-3-3-3-3-3-2----|
  [X-X-X-X-X-X-X-X-X-X-X-X-X-X-X-X]


| /  slide up
| \  slide down
| h  hammer-on
| p  pull-off
| ~  vibrato
| +  harmonic
| x  Mute note





Comments


Popular Ziggens tabs & chords
Goin Richer Bass Tabs
Goin Richer 1 Bass Tabs
Call It Quits Chords
Sober Up Chords
61 9 Tabs
I Am Afraid Tabs
Pistol Pete Tabs
San Clemente Tabs
Tim The Dinosaur Tabs
Sober Up Ukulele


Song lyrics



↑ Back to top | Tablatures and chords are parodies/interpretations of the original songs. You may use it for private study, scholarship, research or language learning purposes only
© 2014 AZChords.com Contact us | Privacy policy | DMCA | Add/correct tabs | Request tabs | Top 50 tabs