>
 >
Surfin Buena Park

Surfin Buena Park Guitar Tabs

Ziggens - Surfin Buena Park chords, tabs, tablatures, lyrics

Guitar lessons | Add/correct | Request | Top 50 tabs Artists:  A B C D E F G H I J K L M N O P Q R S T U V W X Y Z 0-9

Surfin Buena Park Guitar Tabs – Ziggens

CD, Sheet music, Poster

Do you like Surfin Buena Park? Share with your friends now
Tabs
The Ziggens - Surfin' Buena Park

RIFF 1
e||------------------------------------------------------------------------------------|
B||------------------------------------------------------------------------------------|
G||------------------------------------------------------------------------------------|
D||------------6-7-9\--7-6-7-6--------------------6-7-9\--7-6-7-6----------------------|
A||--3/7--7-7------------------7-5-------3/7-7--7--------------------------------------|
E||------------------------------------------------------------------------------------|

RIFF 2
     G    F    F  A G F    G  A G F   G F  E E E         E
e||--3~---1~---3--5-3-1~---3--5-3--1--3-1----------------------------------------------|
B||--3~---1~---3--5-3-1~---3--5-3--1--3-1----------------------------------------------|
G||--4~---2~---4--6-4-2~---4--6-4--2--4-2--1-1-1----------1----------------------------|
D||--5~---3~---5--7-5-3~---5--7-5--3--5-3--2-2-2----------2----------------------------|
A||--5~---3~---5--7-5-3~---5--7-5--3--5-3--2-2-2----------2----------------------------|
E||--3~---1~---3--5-3-1~---3--5-3--1--3-1-----------17\--------------------------------|


RIFF 3
e||------------------------------------------------------------------------------------|
B||------------------------------------------------------------------------------------|
G||------------------------------------------------------------------------------------|
D||------------6-8\-------4h5 4h5--------6-8--7777-5-----------------------------------|
A||--3/7--7-7--------5--5-----------7--7-------------7---------------------------------|
E||------------------------------------------------------------------------------------|

RIFF 4
e||------------------------------------------------------------------------------------|
B||------------------------------------------------------------------------------------|
G||-----------------------------------------------111-------1--------------------------|
D||-----------------------------------------------222-------2--------------------------|
A||-----------------------------------------------222-------2--------------------------|
E||--3333333-111111-33-55\-3-1111--33-55-3\-1-3-1-000---17\----------------------------|

RIFF 5
e||------------------------------------------------------------------------------------|
B||-------------------------------------------------------------------------------2--3-|
G||---------------------------------------------------------------------------1---2--3-|
D||-----------------------------------------------------------------222-------2---2--3-|
A||--777777775555555333333332---7----7--9--10-9-7-6---10-9-7-6-7-9--222-------2------1-|
E||--------------------------------7-------------------------------------17\-----------|

RIFF 6
e||-------------------------------------------------------------------------------------|
B||-------------------------------------------------------------------------------------|
G||--9--7--9-7--9/11-9/11--9-7-9~-------------------------------------------------------|
D||--9--7--9-7--9/11-9/11--9-7-9~-------------------------------------------------------|
A||--7--5--7-5--7/9--7/9---7-5-7~-------------------------------------------------------|
E||-------------------------------------------------------------------------------------|

RIFF 7
e||-------------------------------------------------------------------------------------|
B||-------------------------------------------------------------------------------------|
G||-----------------------------7/9\----------------------------------------------------|
D||--999-7/9--999-7/9--777-7/9--5/7\----------------------------------------------------|
A||--777-5/7--777-5/7--777-5/7----------------------------------------------------------|
E||-------------------------------------------------------------------------------------|

RIFF 8
e||-------------------------------------------------------------------------------------|
B||-------------------------------------------------------------------------------------|
G||-------------------------------------------------------------------------------------|
D||-------------------------------------------------------------------------------------|
A||---7777--7-5555--5-------------------------------------------------------------------|
E||-------77------55--------------------------------------------------------------------|


RIFF 9
e||-----------------------------------------------------------------------------------------|
B||---12-12-12-12-12-15-12-12-12p10-12-12-12-12-12-12-15-12-12-12p10-12-12-12-12-15b-15b-12-|
G||-----------------------------------------------------------------------------------------|
D||-----------------------------------------------------------------------------------------|
A||-----------------------------------------------------------------------------------------|
E||-----------------------------------------------------------------------------------------|

1
2
3 X2
4
3 X2
4
5
6 X2
7 X2
3
5
1
8
9
1
(End with playing the first part of the first riff)





Comments


Popular Ziggens tabs & chords
Goin Richer 1 Bass Tabs
Big Salty Tears 1 Chords
Call It Quits Chords
Debutante Intro Tabs
Pistol Pete Tabs
Surf Guitar Tabs
Temptation Tabs
Big Salty Tears Ukulele
Call It Quits Ukulele
Sober Up Ukulele


Song lyrics



↑ Back to top | Tablatures and chords are parodies/interpretations of the original songs. You may use it for private study, scholarship, research or language learning purposes only
© 2014 AZChords.com Contact us | Privacy policy | DMCA | Add/correct tabs | Request tabs | Top 50 tabs