>
 >
Surf Guitar

Surf Guitar Guitar Tabs

Ziggens - Surf Guitar chords, tabs, tablatures, lyrics

Guitar lessons | Add/correct | Request | Top 50 tabs Artists:  A B C D E F G H I J K L M N O P Q R S T U V W X Y Z 0-9

Surf Guitar Guitar Tabs – Ziggens

CD, Sheet music, Poster

Do you like Surf Guitar? Share with your friends now
Tabs

this is the whole song.  
it might be a little bit off, 
but you should get the general idea.

                                   *********************
                                   ********Key**********
                                   ** /  = slide up   **
                                   ** h  = hammer on  **
                                   ** p  = pull off   **
                                   ** ~  = let ring   **
                                   ** /\ = whammy bar **
                                   *********************
                                   *********************

riff 1

|------------------------------------------------------------------|
|------------------------------------------------------------------|
|------------------------------------------------------------------|
|------------------------------------------------------------------|
|---------------------------------2222222222222222222233332222-----|
|-00000000000022223333333333333333----------------------------3333-|
	(use tremelo picking)


riff 2

|--------------------------------|
|--------------------------------|
|-----------4-4--4-4-5-5-4-4-----|
|-2-2--5-5--4-4--4-4-5-5-4-4-5-5-|
|-2-2--5-5--2-2--2-2-3-3-2-2-5-5-|
|-0-0--3-3-------------------3-3-|

riff 3

|-------------------------------------------------------|
|-/5-5-5------------------------------------------------|
|--------4-4-4--------------------------2-2-4-4-5-5-4---|
|--------------5-5-5-2-2----2-2-4-4-5-5---------------5-|
|------------------------2------------------------------|
|-------------------------------------------------------|

riff 4

g |-------------------------|
u |-5---------------------5-|
i |---4-5---4-4-5-4h5p4-4---|
t |-------5-----------------|
# |-------------------------|
1 |-------------------------|

   Em  Gm  F#m
g |-0~--3~--2~--2~-|
u |-0~--3~--2~--2~-|
i |-0~--3~--2~--2~-|
t |-2~--5~--4~--4~-|
# |-2~--5~--4~--4~-|
2 |-0~--3~--2~--2~-|

riff 5

       x3             x1
|---------------|---------------|
|---------------|---------------|
|---------------|---------------|
|-2-2-2-3-3-3-3-|-2-2-2-2-2-2-2-|
|-2-2-2-3-3-3-3-|-2-2-2-2-2-2-2-|
|-0-0-0-1-1-1-1-|-0-0-0-0-0-0-0-|

riff 6

|---------------------------------------------------------------------|
|-/5-5-5--------------------------------------------------------------|
|--------4-4-4--------------------------2-2-4-4-5-5-4-5-4-5-4-2-------|
|--------------5-5-5-2-2----2-2-4-4-5-5-------------------------5-4-2-|
|------------------------2--------------------------------------------|
|---------------------------------------------------------------------|


End
    whammy bar
|-7~/\/\/\/\----|-7-|
|-7~/\/\/\/\----|-7-|
|-8~/\/\/\/\----|-8-|
|-9~/\/\/\/\----|-9-|
|-7~/\/\/\/\----|-7-|
|---------------|---|


ORDER
riff 1 x2
riff 2 x2
riff 3 x4
riff 4 x2
riff 5 x2
riff 3 x4
riff 4 x2
riff 5 x2
riff 1 x2
riff 3 x4 (sax solo)
riff 5 x2
riff 3 x3
riff 6 x1
End    x1





Comments


Popular Ziggens tabs & chords
Big Salty Tears Chords
Big Salty Tears 1 Chords
Call It Quits Chords
Carry Your Cross Chords
61 9 Tabs
I Am Afraid Tabs
San Clemente Tabs
Tim The Dinosaur Tabs
Big Salty Tears Ukulele
Call It Quits Ukulele


Song lyrics



↑ Back to top | Tablatures and chords are parodies/interpretations of the original songs. You may use it for private study, scholarship, research or language learning purposes only
© 2014 AZChords.com Contact us | Privacy policy | DMCA | Add/correct tabs | Request tabs | Top 50 tabs