» » »

Ziggens, Pistol Pete Tabs (ver.1)

Artists:  A B C D E F G H I J K L M N O P Q R S T U V W X Y Z # 

Pistol Pete Tabs (ver.1)

Ziggens Tabs
 Rating:
4/5 (4 votes)
Pistol Pete lessons Tabs too difficult? Try these video lessons and learn fast
1
                
_____INTRO__________________________

A E D

A E D

e|------------------------------------|
b|------------------------------------|
g|-----2-4-4/6------2-2h4------2-h4---|
d|-2h4----------2h4-------2h4-------4-|
a|------------------------------------|
E|------------------------------------|

e|----------------------------------------|
b|----------------------------------------|
g|-----2-4-4/6------2-2h6-------2h4-4-2-4-|
d|-2h4----------2h4-------2h4-------------|
a|----------------------------------------|
E|----------------------------------------|



_____VERSE__________________________(00:23)

A E D

_____CHORUS_________________________(01:07)

D/E E

E\D D

_____BRIDGE_________________________(01:30)

D C# Bm A E


e|------------------------------------|
b|------------------------------------|
g|-----2-4-4/6------2-2h4------2-h4---|
d|-2h4----------2h4-------2h4-------4-|
a|------------------------------------|
E|------------------------------------|

e|----------------------------------------|
b|----------------------------------------|
g|-----2-4-4/6------2-2h6-------2h4-4-2-4-|
d|-2h4----------2h4-------2h4-------------|
a|----------------------------------------|
E|----------------------------------------|


_____VERSE__________________________(01:48)

A E D

_____CHORUS_________________________(02:33)

D/E E

E\D D


_____BRIDGE_________________________(02:56)

D C# Bm A E

sOLO:
e|------------------------------------|
b|------------------------------------|
g|-----2-4-4/6------2-2h4------2-h4---|
d|-2h4----------2h4-------2h4-------4-|
a|------------------------------------|
E|------------------------------------|

e|----------------------------------------|
b|----------------------------------------|
g|-----2-4-4/6------2-2h6-------2h4-4-2-4-|
d|-2h4----------2h4-------2h4-------------|
a|----------------------------------------|
E|----------------------------------------|

e|-----------------|
b|--------2h3-3-3--|
g|-4-4-4-----------|
d|-----------------|
a|-----------------|
E|-----------------|

e|------------------------------------------------------|
b|-2-3p2-3/5-5-5---5-5-5-3-2--2-2-2--2/3-3-3--3-3-3-2---|
g|----------------------------------------------------4-|
d|------------------------------------------------------|
a|------------------------------------------------------|
E|------------------------------------------------------|

e|------------------------------------------------------|
b|-2-3p2-3/5-5-5---5-5-5-3-2--2-2-2--2/3-3-3--3-3-3-2---|
g|----------------------------------------------------4-|
d|------------------------------------------------------|
a|------------------------------------------------------|
E|------------------------------------------------------|

e|----------------------------|
b|----------------------------|
g|-2h4-2-----------------2-4--|
d|----------2h4-2----2h4------|
a|----------------------------|
E|----------------------------|

e|---------------------------|
b|------------~2-------------|
g|------2-4-2----2-----------|
d|--2-4--------------2-2-4-2-|
a|---------------------------|
E|---------------------------|


_____VERSE__________________________(03:37)

A E D

_____CHORUS_________________________(04:22)

E E E

E\D

_____BRIDGE_________________________(04:44)

D C# Bm A E


_____OUTRO__________________________(4:50)

e|------------------------------------|
b|------------------------------------|
g|-----2-4-4/6------2-2h4------2-h4---|
d|-2h4----------2h4-------2h4-------4-|
a|------------------------------------|
E|------------------------------------|

e|----------------------------------------|
b|----------------------------------------|
g|-----2-4-4/6------2-2h6-------2h4-4-2-4-|
d|-2h4----------2h4-------2h4-------------|
a|----------------------------------------|
E|----------------------------------------| X2


e|-----------------|
b|--------2h3-3-3--|
g|-4-4-4-----------|
d|-----------------|
a|-----------------|
E|-----------------|

e|------------------------------------------------------|
b|-2-3p2-3/5-5-5---5-5-5-3-2--2-2-2--2/3-3-3--3-3-3-2---|
g|----------------------------------------------------4-|
d|------------------------------------------------------|
a|------------------------------------------------------|
E|------------------------------------------------------|

e|------------------------------------------------------|
b|-2-3p2-3/5-5-5---5-5-5-3-2--2-2-2--2/3-3-3--3-3-3-2---|
g|----------------------------------------------------4-|
d|------------------------------------------------------|
a|------------------------------------------------------|
E|------------------------------------------------------|

e|----------|
b|----------|
g|-2-2h4-2--|
d|----------|
a|----------|
E|----------|
            
Submit corrections

comments powered by Disqus
↑ Back to top | Ziggens Tabs for Pistol Pete. Lyrics for acoustic guitar and electric guitar. 1 Tablatures and chords are parodies/interpretations of the original songs. You may use it for private study, scholarship, research or language learning purposes only