» » »

Ziggens, I Took My Mom To The Prom Tabs (ver.1)

Artists:  A B C D E F G H I J K L M N O P Q R S T U V W X Y Z # 

I Took My Mom To The Prom Tabs (ver.1)

Ziggens Tabs
 Rating:
4/5 (4 votes)
I Took My Mom To The Prom lessons Tabs too difficult? Try these video lessons and learn fast
1
                I Took My Mom To The Prom - The Ziggens
Pomona Lisa

Tuning: EADGBE

e|---------------------------------|
B|---------------------------------|
G|---------------------------------|
D|-7--7-7-10--10-10-9-9-9-8--8-8-8-| 
A|-7--7-7-10--10-10-9-9-9-8--8-8-8-|
E|-5--5-5--8---8--8-7-7-7-6--6-6-6-| x6

e|--------------------------------------------------------------------------|
B|--------------------------------------------------------------------------|
G|--------------------------------------------------------------------------|
D|-7--.-.-.-.-.-.-.-.-.-.-.-.-.-.-.-.--7-6--.-.-.-.-.-.-.-.-.-.-.-.-.-.-.-.-|
A|-7--7-7-7-7-7-7-7-7-7-7-7-7-7-7-7-7--7-6--6-6-6-6-6-6-6-6-6-6-6-6-6-6-6-6-|
E|-5--5-5-5-5-5-5-5-5-5-5-5-5-5-5-5-5--5-4--4-4-4-4-4-4-4-4-4-4-4-4-4-4-4-4-|

e|---------------------------------------------------------------------|
B|---------------------------------------------------------------------|
G|---------------------------------------------------------------------|
D|-6-5--.-.-.-.-.-.-.-.-.-.-.-.-.-.-.-.-5-4----------------------------| 
A|-6-5--5-5-5-5-5-5-5-5-5-5-5-5-5-5-5-5-5-4----------------------------|
E|-4-3--3-3-3-3-3-3-3-3-3-3-3-3-3-3-3-3-3-2----------------------------|

e|---------------------------------|
B|---------------------------------|
G|---------------------------------|
D|-7--7-7-10--10-10-9-9-9-8--8-8-8-| 
A|-7--7-7-10--10-10-9-9-9-8--8-8-8-|
E|-5--5-5--8---8--8-7-7-7-6--6-6-6-| x4

e|--------------------------------------------------------------------------|
B|--------------------------------------------------------------------------|
G|--------------------------------------------------------------------------|
D|-7--.-.-.-.-.-.-.-.-.-.-.-.-.-.-.-.--7-6--.-.-.-.-.-.-.-.-.-.-.-.-.-.-.-.-|
A|-7--7-7-7-7-7-7-7-7-7-7-7-7-7-7-7-7--7-6--6-6-6-6-6-6-6-6-6-6-6-6-6-6-6-6-|
E|-5--5-5-5-5-5-5-5-5-5-5-5-5-5-5-5-5--5-4--4-4-4-4-4-4-4-4-4-4-4-4-4-4-4-4-|

e|---------------------------------------------------------------------|
B|---------------------------------------------------------------------|
G|---------------------------------------------------------------------|
D|-6-5--.-.-.-.-.-.-.-.-.-.-.-.-.-.-.-.-5-4----------------------------| 
A|-6-5--5-5-5-5-5-5-5-5-5-5-5-5-5-5-5-5-5-4----------------------------|
E|-4-3--3-3-3-3-3-3-3-3-3-3-3-3-3-3-3-3-3-2-------2/-------------2/----|

e|---------------------------------|
B|---------------------------------|
G|---------------------------------|
D|-7--7-7-10--10-10-9-9-9-8--8-8-8-| 
A|-7--7-7-10--10-10-9-9-9-8--8-8-8-|
E|-5--5-5--8---8--8-7-7-7-6--6-6-6-| x3

e|---------------------------------|
B|---------------------------------|
G|---------------------------------|
D|-7--7-7-10--10-10-9-9-9----------| 
A|-7--7-7-10--10-10-9-9-9----------|
E|-5--5-5--8---8--8-7-7-7----------|

e|-12-11-|     e|-11-10-|     e|-10-9-|     e|-9-8-9\----16\--14\--|
B|-------|     B|-------|     B|------|     B|---------------------|
G|-------|     G|-------|     G|------|     G|---------------------|
D|-------|     D|-------|     D|------|     D|---------------------|
A|-------|     A|-------|     A|------|     A|---------------------|
E|-------| x8  E|-------| x8  E|------| x8  E|---------------------|

e|-12-11-|     e|-11-10-|     e|-10-9-|     e|-8----------------|
B|-------|     B|-------|     B|------|     B|---9-6------------|
G|-------|     G|-------|     G|------|     G|-------9-8--------|
D|-------|     D|-------|     D|------|     D|-----------10-9-8-|
A|-------|     A|-------|     A|------|     A|------------------|
E|-------| x8  E|-------| x8  E|------| x8  E|------------------|

e|---------------------------------|
B|---------------------------------|
G|---------------------------------|
D|-7--7-7-10--10-10-9-9-9-8--8-8-8-| 
A|-7--7-7-10--10-10-9-9-9-8--8-8-8-|
E|-5--5-5--8---8--8-7-7-7-6--6-6-6-| x2

So I'm all you took your mom to the prom and he's all yeah and I'm all okay
and then he's all and them I'm all and then he's all

e|---------------------------------|
B|---------------------------------|
G|---------------------------------|
D|-7--7-7-10--10-10-9-9-9-8--8-8-8-|
A|-7--7-7-10--10-10-9-9-9-8--8-8-8-| 
E|-5--5-5--8---8--8-7-7-7-6--6-6-6-| x3

e|---------------------------------|
B|---------------------------------|
G|---------------------------------|
D|-7--7-7-10--10-10-9-9-9-8--------| 
A|-7--7-7-10--10-10-9-9-9-8--------|
E|-5--5-5--8---8--8-7-7-7-6--------|

| /  slide up
| \  slide down
| h  hammer-on
| p  pull-off
| ~  vibrato
| +  harmonic
| .  Mute note (palm mute the strings as well to match the recording)
            
Submit corrections

comments powered by Disqus
↑ Back to top | Ziggens Tabs for I Took My Mom To The Prom. Lyrics for acoustic guitar and electric guitar. 1 Tablatures and chords are parodies/interpretations of the original songs. You may use it for private study, scholarship, research or language learning purposes only