» » »

Debutante Tabs (ver.1)

Artists:  A B C D E F G H I J K L M N O P Q R S T U V W X Y Z # 

Debutante Tabs (ver.1)

Ziggens
Rating:
0/5 (0 votes)

Hard to play? Try these video lessons and learn fast.
                (Intro)
Debutante (Intro) – The Ziggens


/ - Slide Up

Tuning: e A D G B E

e|--------------|
B|--------------|
G|8—-5-5-5-5----|
D|6—-3-3-3-3----|
A|6—-3-3-3-3-12/|
E|-----------11/|

e|-----------------------------------------------------------|
B|-----------------------------------------------------------|
G|-----------------------------------------------------------|
D|-----------1-2-------2-1------2-2-2-2-2--------------------|
A|--------2------4-2-2-----4-2------------5-4-2—2-2-2-2-0----|
E|0-0-4-5-------------------------------------------------4-2|

e|---------------|
B|---------------|
G|---------------|
D|---------------|
A|2-4-2-4-2-4-12/|
E|------------11/|

e|-----------------------------------------------------------|
B|-----------------------------------------------------------|
G|-----------------------------------------------------------|
D|-----------1-2-------2-1------2-2-2-2-2--------------------|
A|--------2------4-2-2-----4-2------------5-4-2—2-2-2-2-0----|
E|0-0-4-5-------------------------------------------------4-2|
            
Hard to play? Try these video lessons and learn fast. | Correct




comments powered by Disqus
↑ Back to top | Tablatures and chords are parodies/interpretations of the original songs. You may use it for private study, scholarship, research or language learning purposes only