» » »

Ziggens, Big Salty Tears Chords (ver.2)

Artists:  A B C D E F G H I J K L M N O P Q R S T U V W X Y Z # 

Big Salty Tears Chords (ver.2)

Ziggens Tabs
 Rating:
4/5 (4 votes)
Big Salty Tears lessons Tabs too difficult? Try these video lessons and learn fast
                The Ziggens 
Big Salty Tears


        D     F#          G       Bb    A         C
E|------5-----2-----3-----6-----5-----3----|    
B|------6-----2-----3-----6-----5-----4----|    
G|------7-----3-----4-----7-----6-----5----|
D|------7-----4-----5-----8-----7-----5----|
A|------5-----4-----5-----8-----7-----3----|
E|------x-----2-----3-----6-----5-----x—---|

OR

Verse
      D    F#   G     Bb   A
E|-----2----2----3----6----5----|
B|-----3----2----3----6----5----|
G|-----2----3----4----7----6----|
D|-----0----4----5----8----7----|
A|------------------------------|
E|------------------------------|

Chorus
      D     C    G    D
E|-----2----0----3----2----|
B|-----3----1----3----3----|
G|-----2----0----0----2----|
D|-----0----2----0---------|
A|----------3----2---------|
E|---------------3---------|

Intro: on the E string-
 big salty tears
|--0—--2-—4—-5--|

verse:
D          F#
are what I tasted
G
as I drove
Bb
Past your house  
A
Tonight...


Chorus:
D
Im at the age
C 
When I realize
G
The liquor store 
D
Won’t bring you back

Repeat chorus.
            
Submit corrections

comments powered by Disqus
↑ Back to top | Ziggens Chords for Big Salty Tears. Lyrics for acoustic guitar and electric guitar. Tablatures and chords are parodies/interpretations of the original songs. You may use it for private study, scholarship, research or language learning purposes only