» » »

Big Salty Tears Chords (ver.1)

Artists:  A B C D E F G H I J K L M N O P Q R S T U V W X Y Z # 

Big Salty Tears Chords (ver.1)

Ziggens
Rating:
5/5 (3 votes)

Hard to play? Try these video lessons and learn fast.
                Hi all great song great band I can't believe it hasn't been tabbed yet. Well here's the 
I might get around to tab the solo eventually.


Verse
       D    F#   G    Bb   A
E|-----2----2----3----6----5----|
B|-----3----2----3----6----5----|
G|-----2----3----4----7----6----|
D|-----0----4----5----8----7----|
A|------------------------------|
E|------------------------------|

Chorus
       D    C    G    D
E|-----2----0----3----2----|
B|-----3----1----3----3----|
G|-----2----0----0----2----|
D|-----0----2----0---------|
A|----------3----2---------|
E|---------------3---------|
            
Hard to play? Try these video lessons and learn fast. | Correct




comments powered by Disqus
↑ Back to top | Tablatures and chords are parodies/interpretations of the original songs. You may use it for private study, scholarship, research or language learning purposes only