» » »

Zico Chain, Preach Tabs (ver.1)

Artists:  A B C D E F G H I J K L M N O P Q R S T U V W X Y Z # 

Preach Tabs (ver.1)

Zico Chain Tabs
 Rating:
4/5 (4 votes)
Preach lessons Tabs too difficult? Try these video lessons and learn fast
                intro (with slide)
D|---------------------------------------------------------------------------------------------|
A|---------------------------------------------------------------------------------------------|
F|---------------------------------------------------------------------------------------------|
C|-0--0-0-2/3-0-2/3-0-2/3/12\0-0-0-2/3-0-2/3-0-2/3/12\0-0-0-2/3-0-2/3-0-2/3/12\0-0-0-2/3-0-2/3-|
G|-0--0-0-2/3-0-2/3-0-2/3/12\0-0-0-2/3-0-2/3-0-2/3/12\0-0-0-2/3-0-2/3-0-2/3/12\0-0-0-2/3-0-2/3-|
C|-0--0-0-2/3-0-2/3-0-2/3/12\0-0-0-2/3-0-2/3-0-2/3/12\0-0-0-2/3-0-2/3-0-2/3/12\0-0-0-2/3-0-2/3-|
Last note slide between 2nd and 3rd

The cast away your slide into the distance! lol *or don't; might break*

D|------------------------------|
A|------------------------------|
F|------------------------7-7-7-|
C|-0--0-0-2/3-0-2/3-0-2/3-------|
G|-0--0-0-2/3-0-2/3-0-2/3-5-5-5-|
C|-0--0-0-2/3-0-2/3-0-2/3-------|x3


D|--------------------------|
A|--------------------------|
F|--------------------------|
C|-0--0-0-2/3-0-2/3-0-2/3-0-|
G|--------------------------|
C|--------------------------|
Let the last note ring into the verse

Bridge

D|--------------------------------|
A|--------------------------------|
F|-12--12--12-12-12-7--7-7--7-7-7-|
C|-10--10--10-10-10-5--5-5--5-5-5-|
G|-10--10--10-10-10-5--5-5--5-5-5-|
C|-10--10--10-10-10-5--5-5--5-5-5-|


D|------------------------------|
A|------------------------------|
F|------------------------7-7-7-|
C|-0--0-0-2/3-0-2/3-0-2/3-------|
G|-0--0-0-2/3-0-2/3-0-2/3-5-5-5-|
C|-0--0-0-2/3-0-2/3-0-2/3-------|

D|--------------------------------|
A|--------------------------------|
F|-12--12--12-12-12-7--7-7--7-7-7-|
C|-10--10--10-10-10-5--5-5--5-5-5-|
G|-10--10--10-10-10-5--5-5--5-5-5-|
C|-10--10--10-10-10-5--5-5--5-5-5-|


D|--------------------------|
A|--------------------------|
F|--------------------------|
C|-0--0-0-2/3-0-2/3-0-2/3-0-|
G|--------------------------|
C|--------------------------|

D|--------------------------------|
A|--------------------------------|
F|-12--12--12-12-12-7--7-7--7-7-7-|
C|-10--10--10-10-10-5--5-5--5-5-5-|
G|-10--10--10-10-10-5--5-5--5-5-5-|
C|-10--10--10-10-10-5--5-5--5-5-5-|


D|------------------------------|
A|------------------------------|
F|------------------------7-7-7-|
C|-0--0-0-2/3-0-2/3-0-2/3-------|
G|-0--0-0-2/3-0-2/3-0-2/3-5-5-5-|
C|-0--0-0-2/3-0-2/3-0-2/3-------|


D|-------------------------------|
A|-------------------------------|
F|-12--12-12-12-12-7--7-7--7-7-7-|
C|-10--10-10-10-10-5--5-5--5-5-5-|
G|-10--10-10-10-10-5--5-5--5-5-5-|
C|-10--10-10-10-10-5--5-5--5-5-5-|

Chorus

D|-----------------------------|
A|-----------------------------|
F|-5--5-5-10-10105--5-5-7--7-7-|
C|-0--0-0-8--8-8-3--3-3-5--5-5-|
G|-0--0-0-8--8-8-3--3-3-5--5-5-|
C|-0--0-0-8--8-8-3--3-3-5--5-5-|x3

D|------------------|
A|------------------|
F|-10-1010101010109-|
C|-8--8-8-8-8-8-8-7-|
G|-8--8-8-8-8-8-8-7-|
C|-8--8-8-8-8-8-8-7-|

And from there you have everything you need to play the song. It's just about  the 
but; you're a Zico Chain fan so you don't need my help there =]
Enjoy and have fun and feekback yadda yadda lol
            
Submit corrections

comments powered by Disqus
↑ Back to top | Zico Chain Tabs for Preach. Lyrics for acoustic guitar and electric guitar. Tablatures and chords are parodies/interpretations of the original songs. You may use it for private study, scholarship, research or language learning purposes only