» » »

Zico Chain, All Eyes On Me Tabs (ver.1)

Artists:  A B C D E F G H I J K L M N O P Q R S T U V W X Y Z # 

All Eyes On Me Tabs (ver.1)

Zico Chain Tabs
 Rating:
4/5 (4 votes)
All Eyes On Me lessons Tabs too difficult? Try these video lessons and learn fast
                Tuning: CGCFAD

(Main riff)
D|-----xx----xx----xx------|
A|-----xx----xx----xx------|
F|-7777xx7777xx7777xx6-6-6-|
G|-----xx----xx----xx4-4-4-|
G|-5555xx5555xx5555xx4-4-4-|
C|-----xx----xx----xx4-4-4-|

(verse)
D|-------------------------|
A|-------------------------|
F|-------------------7-7-7-|
G|-------------------------|
G|-5-555-5-5-5-5-555-5-5-5-|
C|-0-000-0-0-0-0-000-------|
   [....palm mute...]

Won't let me......

(.....down)
D|-------------------------|
A|-------------------------|
F|-------7-----7-----6-6-6-|
G|-----7---7-----7---4-4-4-|
G|---5-------5-----5-4-4-4-|
C|-0-----------------4-4-4-|

(shadows keep hanging over me like a clown of defeat)
D|-----------------xx----xx-------------------------|
A|-----------------xx----xx-------------------------|
F|-9-9-9-7-7-7-7777xx7777xx6-6-6-7-7-7-777777777777-|
G|-7-7-7-5-5-5-----xx----xx4-4-4-5-5-5--------------|
G|-7-7-7-5-5-5-5555xx5555xx4-4-4-5-5-5-555555555555-|
C|-7-7-7-5-5-5-----xx----xx4-4-4-5-5-5--------------|
                                       [....bend....]

(chorus)
D|---------------|
A|---------------|
F|-7-77-97-7-9-9-|
G|-7-77-75-5-7-7-|
G|-5-57-75-5-7-7-|
C|-0-07-75-5-7-7-|

(all eyes on me)
D|---------------|
A|---------------|
F|-------7-----7-|
G|---------7-----|
G|----5------5---|
C|-0-------------|

(all eyes on meeeeeee)
D|---------|
A|---------|
F|-6-6-6-7-|
G|-4-4-4-5-|
G|-4-4-4-5-|
C|-4-4-4-5-|

(Final bar)
D|-------------------------|
A|-------------------------|
F|-7777xx7777xx7777xx6-6-7-|
G|-----xx----xx----xx4-4-5-|
G|-5555xx5555xx5555xx4-4-5-|
C|-----xx----xx----xx4-4-5-|

There it is; I think my favourite song on the album lol. It's all there the rest is 
but that's no help to you unless you know the song I guess lol. In which case; I guess you 
be reading this tab lol. Enjoy!

D|---------------------------------------------------------------------------|
A|---------------------------------------------------------------------------|
F|---------------------------------------------------------------------------|
G|---------------------------------------------------------------------------|
G|---------------------------------------------------------------------------|
C|---------------------------------------------------------------------------|
            
Submit corrections

comments powered by Disqus
↑ Back to top | Zico Chain Tabs for All Eyes On Me. Lyrics for acoustic guitar and electric guitar. Tablatures and chords are parodies/interpretations of the original songs. You may use it for private study, scholarship, research or language learning purposes only