» » »

About A Boy Tabs (ver.1)

Artists:  A B C D E F G H I J K L M N O P Q R S T U V W X Y Z # 

About A Boy Tabs (ver.1)

Zico Chain
Rating:
0/5 (0 votes)

Hard to play? Try these video lessons and learn fast.
                (Live)
-----------------------------------------------------|
------  Z   I   C   O      C   H  A  I  N    --------|
-----------------------------------------------------|
--------------A B O U T   A   B O Y------------------|

AS THIS IS ON THEIR 2ND ALBUM (AS OF YET UNRELEASED AND UNRECORDED)
ROCKING ANYHOW, ENJOY
LIVE INTRO (SOUNDS PRETTY ROCKING WITH WAH EFFECTS)
F----------------------------------------------------------------------|
A----------------------------------------------------------------------|
D--7--7--7-7-7-7--10--10--10-10-10-10--13--13--13-13-13-13--14-14/-17--|
C--X--X--X-X-X-X--X---X---X--X--X--X---X---X---X--X--X--X---X--X---X---|
G--5--5--5-5-5-5--8---8---8--8--8--8---11--11--11-11-11-11--12-12/-15--|
C----------------------------------------------------------------------|

VERSE         (TIMES 4)
F---------------------------------------------------------------------|
A---------------------------------------------------------------------|
D-7-7-7-7-7-7-7-7-10-10-10-10-10-10-10-10-7-7-7-7-7-7-7-7--7-9-10-9-5-|
C-7-7-7-7-7-7-7-7-10-10-10-10-10-10-10-10-7-7-7-7-7-7-7-7--X-X-X--X-X-|
G-5-5-5-5-5-5-5-5-8--8--8--8--8--8--8--8--5-5-5-5-5-5-5-5--5-7-8--7-5-|
C---------------------------------------------------------------------|
"YOU SHOULD'VE KNOWN, YOU SHOULD'VE KNOW...WOOOAAAOOOAAAOOHH"

INTERLUDE: TIMES 2
F-----------------------------------------------------------|
A-----------------------------------------------------------|
D--7-7-7-7-7-7--9--10-10-10-10-10-10--14--12-12-12-12-12-12-|
C--X-X-X-X-X-X--X--X--X--X--X--X--X---X---X--X--X--X--X--X--|
G--5-5-5-5-5-5--7--8--8--8--8--8--8---12--10-10-10-10-10-10-|
C-----------------------------------------------------------|

F-----------------------|
A-----------------------|
D--10-10-10-10--9-9-9-9-|
C--X--X--X--X---X-X-X-X-|
G--8--8--8--8---7-7-7-7-|
C-----------------------|

"WOOOOAAAAOOOOAAAAOOOHHH WHATS A BOY SUPPOSED TO DO?"

CHORUS: LOUD AND HEAVY (TIMES 4)

F----------------------------------------------------------|
A----------------------------------------------------------|
D--7--X-X-X--5/-7--X-X-X--3-3-3-3-3-3-3-3------------------|
C--7--X-X-X--5/-7--X-X-X--3-3-3-3-3-3-3-3--5-5-5-5-5-5-5-5-|
G--5--X-X-X--3/-5--X-X-X--1-1-1-1-1-1-1-1--5-5-5-5-5-5-5-5-|
C------------------------------------------5-5-5-5-5-5-5-5-|
"SO LONG MY..."

INTERLUDE (WITH WAH)
F---------------------------------------------------------------------|
A---------------------------------------------------------------------|
D--7--7--7-7-7-7--10--10--10-10-10-10-9--9--9-9-9-9--8--8--8-8-8-8----|
C--X--X--X-X-X-X--X---X---X--X--X--X--X--X--X-X-X-X--X--X--X-X-X-X----|
G--5--5--5-5-5-5--8---8---8--8--8--8--7--7--7-7-7-7--6--6--6-6-6-6----|
C---------------------------------------------------------------------|

VERSE         (TIMES 4)
F---------------------------------------------------------------------|
A---------------------------------------------------------------------|
D-7-7-7-7-7-7-7-7-10-10-10-10-10-10-10-10-7-7-7-7-7-7-7-7--7-9-10-9-5-|
C-7-7-7-7-7-7-7-7-10-10-10-10-10-10-10-10-7-7-7-7-7-7-7-7--X-X-X--X-X-|
G-5-5-5-5-5-5-5-5-8--8--8--8--8--8--8--8--5-5-5-5-5-5-5-5--5-7-8--7-5-|
C---------------------------------------------------------------------|
"MY PRETTY DRESS, MY PRETTY DRESS...WOOOAAAOOOAAAOOHH"

INTERLUDE: TIMES 2
F-----------------------------------------------------------|
A-----------------------------------------------------------|
D--7-7-7-7-7-7--9--10-10-10-10-10-10--14--12-12-12-12-12-12-|
C--X-X-X-X-X-X--X--X--X--X--X--X--X---X---X--X--X--X--X--X--|
G--5-5-5-5-5-5--7--8--8--8--8--8--8---12--10-10-10-10-10-10-|
C-----------------------------------------------------------|

F-----------------------|
A-----------------------|
D--10-10-10-10--9-9-9-9-|
C--X--X--X--X---X-X-X-X-|
G--8--8--8--8---7-7-7-7-|
C-----------------------|

"WOOOOAAAAOOOOAAAAOOOHHH WHATS A BOY SUPPOSED TO DO?"

CHORUS: LOUD AND HEAVY (TIMES 4)

F----------------------------------------------------------|
A----------------------------------------------------------|
D--7--X-X-X--5/-7--X-X-X--3-3-3-3-3-3-3-3------------------|
C--7--X-X-X--5/-7--X-X-X--3-3-3-3-3-3-3-3--5-5-5-5-5-5-5-5-|
G--5--X-X-X--3/-5--X-X-X--1-1-1-1-1-1-1-1--5-5-5-5-5-5-5-5-|
C------------------------------------------5-5-5-5-5-5-5-5-|
"SO LONG MY..."

SOLO (WITH WAH)
F---------------------------------------------------------------------|
A---------------------------------------------------------------------|
D--7--7--7-7-7-7--10--10--10-10-10-10-9--9--9-9-9-9--8--8--8-8-8-8----|
C--X--X--X-X-X-X--X---X---X--X--X--X--X--X--X-X-X-X--X--X--X-X-X-X----|
G--5--5--5-5-5-5--8---8---8--8--8--8--7--7--7-7-7-7--6--6--6-6-6-6----|
C---------------------------------------------------------------------|

F--------------------------------------------------|
A--------------------------------------------------|
D--7--7--7-7-7-7--10--10--10-10-10-10--12-12-12-12-|
C--X--X--X-X-X-X--X---X---X--X--X--X---X--X--X--X--|
G--5--5--5-5-5-5--8---8---8--8--8--8---10-10-10-10-|
C--------------------------------------------------|

F----------------------------------------|
A----------------------------------------|
D--13-13-13-13--14-14-14-14--17-17-17-17-|
C--X--X--X--X---X--X--X--X---X--X--X--X--|
G--11-11-11-11--12-12-12-12--15-15-15-15-|
C----------------------------------------|

"YOUR PRETTY DRESS, YOUR PRETTY DRESS"
"YOUR SEX APPEAL, YOUR SEX APPEAL"

F--------------------------------------------------------|V
A-----------------------------13-13----------------------|A
D--------14-14--12-12--14-14---------14-14--12-12--------|R
C--12-12------------------------------------------15-15--|I
G--------------------------------------------------------|A
C--------------------------------------------------------|T
                                                        I
F--------------------------------------------------------|O
A-----------------------------15-15----------------------|N
D--------14-14--12-12--14-14---------14-14--12-12--------|S
C--12-12------------------------------------------15-15--|
G--------------------------------------------------------|O
C--------------------------------------------------------|F

F--------------------------------------------------------|T
A-----------------------------13-13----------------------|H
D--------14-14--12-12--14-14---------14-14--12-12--------|I
C--12-12------------------------------------------15-15--|S
G--------------------------------------------------------|
C--------------------------------------------------------|R
                                                        I
F--------------------------------------------------------|F
A-----------------------------15-15----------------------|F
D--------14-14--12-12--14-14---------14-14--12-12--------|
C--12-12------------------------------------------15-15--|
G--------------------------------------------------------|
C--------------------------------------------------------|

INTERLUDE: TIMES 2
F-----------------------------------------------------------|
A-----------------------------------------------------------|
D--7-7-7-7-7-7--9--10-10-10-10-10-10--14--12-12-12-12-12-12-|
C--X-X-X-X-X-X--X--X--X--X--X--X--X---X---X--X--X--X--X--X--|
G--5-5-5-5-5-5--7--8--8--8--8--8--8---12--10-10-10-10-10-10-|
C-----------------------------------------------------------|

F-----------------------|
A-----------------------|
D--10-10-10-10--9-9-9-9-|
C--X--X--X--X---X-X-X-X-|
G--8--8--8--8---7-7-7-7-|
C-----------------------|

"WOOOOAAAAOOOOAAAAOOOHHH WHATS A BOY SUPPOSED TO DO?"

CHORUS: LOUD AND HEAVY (TIMES 4)

F----------------------------------------------------------|
A----------------------------------------------------------|
D--7--X-X-X--5/-7--X-X-X--3-3-3-3-3-3-3-3------------------|
C--7--X-X-X--5/-7--X-X-X--3-3-3-3-3-3-3-3--5-5-5-5-5-5-5-5-|
G--5--X-X-X--3/-5--X-X-X--1-1-1-1-1-1-1-1--5-5-5-5-5-5-5-5-|
C------------------------------------------5-5-5-5-5-5-5-5-|
"SO LONG MY..."

OUTRO (TIMES 4)
F-----------------------------------------------------------|
A-----------------------------------------------------------|
D--7-7-7-7-7-7--9--10-10-10-10-10-10--14--12-12-12-12-12-12-|
C--X-X-X-X-X-X--X--X--X--X--X--X--X---X---X--X--X--X--X--X--|
G--5-5-5-5-5-5--7--8--8--8--8--8--8---12--10-10-10-10-10-10-|
C-----------------------------------------------------------|

F-----------------------|
A-----------------------|
D--10-10-10-10--9-9-9-9-|
C--X--X--X--X---X-X-X-X-|
G--8--8--8--8---7-7-7-7-|
C-----------------------|

CHEERS
JON
            
Hard to play? Try these video lessons and learn fast. | Correct




comments powered by Disqus
↑ Back to top | Tablatures and chords are parodies/interpretations of the original songs. You may use it for private study, scholarship, research or language learning purposes only