» » »

Zero Gravity, Nowhere To Run Tabs (ver.1)

Artists:  A B C D E F G H I J K L M N O P Q R S T U V W X Y Z # 

Nowhere To Run Tabs (ver.1)

Zero Gravity Tabs
 Rating:
4/5 (4 votes)
Nowhere To Run lessons Tabs too difficult? Try these video lessons and learn fast
                D-|-------------------|
A-|-------------------|
F-|-------------------|    (reapeat x4)
C-|-0-1/2-2-2-2-2-2-2-|
G-|-0-1/2-2-2-2-2-2-2-|
C-|-0-1/2-2-2-2-2-2-2-|


D-|-----------------------------------------------------------|
A-|-----------------------------------------------------------|
F-|-10-101010101010121212101010-------------------------------| (repeat x2)
C-|-10-101010101010101010101010-8-8-8-8-8-8-10-10-10-10-10-10-|
G-|-8 -8 8 8 8 8 8 8 8 8 8 8 8 -8-8-8-8-8-8-10-10-10-10-10-10-|
C-|-----------------------------8-8-8-8-8-8-10-10-10-10-10-10-|

D-|--------------------------|
A-|--------------------------|
F-|--------------------------| (repeat x4)
C-|-8/9/10-10-10-10-10-10-10-|
G-|-8/9/10-10-10-10-10-10-10-|
C-|-8/9/10-10-10-10-10-10-10-|

D-|-----------------------------------------------------------|
A-|-----------------------------------------------------------|
F-|-10-101010101010121212101010-------------------------------| (repeat x3)
C-|-10-101010101010101010101010-8-8-8-8-8-8-10-10-10-10-10-10-|
G-|-8 -8 8 8 8 8 8 8 8 8 8 8 8 -8-8-8-8-8-8-10-10-10-10-10-10-|
C-|-----------------------------8-8-8-8-8-8-10-10-10-10-10-10-|

Solo

D-|----------------------------------------------------------|
A-|---------------------------------------6/5/3-6/5/3--------|
F-|-10~-10/12-10-10/9-9/12-9-9\7-7/9-9/5-5-----5-----5~------| repeat
C-|----------------------------------------------------------|
G-|----------------------------------------------------------|
C-|----------------------------------------------------------|

end
            
Submit corrections

comments powered by Disqus
↑ Back to top | Zero Gravity Tabs for Nowhere To Run. Lyrics for acoustic guitar and electric guitar. Tablatures and chords are parodies/interpretations of the original songs. You may use it for private study, scholarship, research or language learning purposes only