» » »

Slam And Worm Bass tabs (ver.1)

Artists:  A B C D E F G H I J K L M N O P Q R S T U V W X Y Z # 

Slam And Worm Bass tabs (ver.1)

Zero Boys
Rating:
0/5 (0 votes)

Hard to play? Try these video lessons and learn fast.
                Intro 
G----------------------------|----------------------------|
D----------------------------|----------------------------|
A-7-7-7-7-3-3-3--5-5-5--2-0--|-7-7-7-7-3-3-3--5-5-5--2-0--|
E----------------------------|----------------------------|

G----------------------------|----------------------------|
D----------------------------|----------------------------|
A-7-7-7-7-3-3-3--5-5-5--2-0--|-7-7-7-7-3-3-3--5-5-5--2-0--|
E----------------------------|----------------------------|

Verse 
G----------------------------|----------------------------|
D----------------------------|----------------------------|
A-7-7-7-7-3-3-3--5-5-5--2-0--|-7-7-7-7-3-3-3--5-5-5--2-0--|
E----------------------------|----------------------------|

G----------------------------|----------------------------|
D----------------------------|----------------------------|
A-7-7-7-7-3-3-3--5-5-5--2-0--|-7-7-7-7-3-3-3--5-5-5--2-0--|
E----------------------------|----------------------------|

Chorus
G-------------------------|----------------------|
D-------------------------|--------------2-1-0---|
A-3-3-3-3-3-3-5-5-5-5-5-5-|-3-3-3-3-3-3--------2-|
E-------------------------|----------------------|

G-------------------------|-------------------------|
D-------------------------|-------------------------|
A-3-3-3-3-3-3-5-5-5-5-5-5-|-0-0-0-0-0-0-0-0-0-0-0-0-|
E-------------------------|-------------------------|

Verse 2
G----------------------------|----------------------------|
D----------------------------|----------------------------|
A-7-7-7-7-3-3-3--5-5-5--2-0--|-7-7-7-7-3-3-3--5-5-5--2-0--|
E----------------------------|----------------------------|

G----------------------------|----------------------------|
D----------------------------|----------------------------|
A-7-7-7-7-3-3-3--5-5-5--2-0--|-7-7-7-7-3-3-3--5-5-5--2-0--|
E----------------------------|----------------------------|

Chorus
G-------------------------|----------------------|
D-------------------------|--------------2-1-0---|
A-3-3-3-3-3-3-5-5-5-5-5-5-|-3-3-3-3-3-3--------2-|
E-------------------------|----------------------|

G-------------------------|-------------------------|
D-------------------------|-------------------------|
A-3-3-3-3-3-3-5-5-5-5-5-5-|-0-0-0-0-0-0-0-0-0-0-0-0-|
E-------------------------|-------------------------|

Chorus
G-------------------------|----------------------|
D-------------------------|--------------2-1-0---|
A-3-3-3-3-3-3-5-5-5-5-5-5-|-3-3-3-3-3-3--------2-|
E-------------------------|----------------------|

G-------------------------|-------------------------|
D-------------------------|-------------------------|
A-3-3-3-3-3-3-5-5-5-5-5-5-|-0-0-0-0-0-0-0-0-0-0-0-0-|
E-------------------------|-------------------------|

Solo
G-----------------|-----------------|-----------------|-----------------|
D-2-1-0-----------|-2-1-0-----------|-2-1-0-----------|-2-1-0-----------|
A-------2-1-0-1-2-|-------2-1-0-1-2-|-------2-1-0-1-2-|-------2-1-0-1-2-|
E-----------------|-----------------|-----------------|-----------------|

Chorus
G-------------------------|----------------------|
D-------------------------|--------------2-1-0---|
A-3-3-3-3-3-3-5-5-5-5-5-5-|-3-3-3-3-3-3--------2-|
E-------------------------|----------------------|

G-------------------------|-------------------------|
D-------------------------|-------------------------|
A-3-3-3-3-3-3-5-5-5-5-5-5-|-5/7-7-7-7-7-7-7-7-7-7-7-|
E-------------------------|-------------------------|

Chorus
G-------------------------|----------------------|
D-------------------------|--------------2-1-0---|
A-3-3-3-3-3-3-5-5-5-5-5-5-|-3-3-3-3-3-3--------2-|
E-------------------------|----------------------|

G-------------------------|-------------------------|
D-------------------------|-------------------------|
A-3-3-3-3-3-3-5-5-5-5-5-5-|-0-0-0-0-0-0-0-0-0-0-0-0-|
E-------------------------|-------------------------|

Outro 
G----------------------------|----------------------------|
D----------------------------|----------------------------|
A-7-7-7-7-3-3-3--5-5-5--2-0--|-7-7-7-7-3-3-3--5-5-5--2-0--|
E----------------------------|----------------------------|

G----------------------------|----------------------------|
D----------------------------|----------------------------|
A-7-7-7-7-3-3-3--5-5-5--2-0--|-7-7-7-7-3-3-3--5-5-5--2-0--|
E----------------------------|----------------------------|
            
Hard to play? Try these video lessons and learn fast. | Correct




comments powered by Disqus
↑ Back to top | Tablatures and chords are parodies/interpretations of the original songs. You may use it for private study, scholarship, research or language learning purposes only