» » »

Zero Boys, Outta Style Bass tabs (ver.1)

Artists:  A B C D E F G H I J K L M N O P Q R S T U V W X Y Z # 

Outta Style Bass tabs (ver.1)

Zero Boys Tabs
Rating:
0/5 (0 votes)
Outta Style lessons Tabs too difficult? Try these video lessons and learn fast
                Verse
G-------------|-------------|-------------|-----------------|
D-------------|-------------|-------------|-----------------|
A---------575-|---------575-|---------575-|-----------------|
E-7-7-7-7-----|-7-7-7-7-----|-7-7-7-7-----|-5-5-5-5-2-2-2-2-|

G-------------|-------------|-------------|-----------------|
D-------------|-------------|-------------|-----------------|
A---------575-|---------575-|---------575-|-----------------|
E-7-7-7-7-----|-7-7-7-7-----|-7-7-7-7-----|-5-5-5-5-2-2-2-2-|

Chorus
G-----------------|----------------|-----------------|----------------|
D-----------------|----------------|-----------------|----------------|
A-3-3-3-3-3-3-3-3-|-2-2--2--2--2-2-|-3-3-3-3-3-3-3-3-|-2-2--2--2--2-2-|
E-----------------|----------------|-----------------|----------------|

G-----------------|----------------|-----------------|----------------|
D-----------------|----------------|-----------------|---------6666777|
A-3-3-3-3-3-3-3-3-|-2-2--2--2--2-2-|-3-3-3-3-3-3-3-3-|-----9999-------|
E-----------------|----------------|-----------------|-7777-----------|

Verse 2
G-------------|-------------|-------------|-----------------|
D-------------|-------------|-------------|-----------------|
A---------575-|---------575-|---------575-|-----------------|
E-7-7-7-7-----|-7-7-7-7-----|-7-7-7-7-----|-5-5-5-5-2-2-2-2-|

G-------------|-------------|-------------|-----------------|
D-------------|-------------|-------------|-----------------|
A---------575-|---------575-|---------575-|-----------------|
E-7-7-7-7-----|-7-7-7-7-----|-7-7-7-7-----|-5-5-5-5-2-2-2-2-|

G-----------------| (Verse 2 has the extra last bar)
D-----------------|
A-----------------|
E-5-5-5-5-2-2-2-2-|

Chorus
G-----------------|----------------|-----------------|----------------|
D-----------------|----------------|-----------------|----------------|
A-3-3-3-3-3-3-3-3-|-2-2--2--2--2-2-|-3-3-3-3-3-3-3-3-|-2-2--2--2--2-2-|
E-----------------|----------------|-----------------|----------------|

G-----------------|----------------|-----------------|----------------|
D-----------------|----------------|-----------------|---------6666777|
A-3-3-3-3-3-3-3-3-|-2-2--2--2--2-2-|-3-3-3-3-3-3-3-3-|-----9999-------|
E-----------------|----------------|-----------------|-7777-----------|

Solo
G-------------|-------------|-------------|-----------------|
D-------------|-------------|-------------|-----------------|
A---------575-|---------575-|---------575-|-----------------|
E-7-7-7-7-----|-7-7-7-7-----|-7-7-7-7-----|-5-5-5-5-2-2-2-2-|

G-----------------|-----------------|-----------------|-----------------|
D-----------------|-----------------|-----------------|-----------------|
A-----------------|-----------------|-----------------|-----------------|
E-5-5-5-5-2-2-2-2-|-5-5-5-5-2-2-2-2-|-5-5-5-5-2-2-2-2-|-5-5-5-5-2-2-2-2-|

G-----------------|-----------------|-----------------|
D-----------------|-----------------|-----------------|
A-----------------|-----------------|-----------------|
E-5-5-5-5-2-2-2-2-|-5-5-5-5-2-2-2-2-|-5-5-5-5-2-2-2-2-|
            

comments powered by Disqus
↑ Back to top | Zero Boys Bass for Outta Style. Lyrics for acoustic guitar and electric guitar. Tablatures and chords are parodies/interpretations of the original songs. You may use it for private study, scholarship, research or language learning purposes only