» » »

Zero Boys, Outta Style Tabs (ver.1)

Artists:  A B C D E F G H I J K L M N O P Q R S T U V W X Y Z # 

Outta Style Tabs (ver.1)

Zero Boys Tabs
 Rating:
4.2/5 (5 votes)
Outta Style lessons Tabs too difficult? Try these video lessons and learn fast
                -------------------------------------------------------------------------------
Vicious Circle
-------------------------------------------------------------------------------

Tuning: Both guitars standard

Guitar 1:                      Guitar 1:
e|-----------------------|     e|----------------------------|
B|-----------------------|     B|----------------------------|
G|-----------------------|     G|----------------------------|
D|------------7----9--7--|     D|----------------------------|
A|-9--9--7--9-5----7--5--|     A|-7--7--7--7-7-4----4--4--4--|
E|-7--7--5--7------------| x5  E|-5--5--5--5-5-2----2--2--2--|

Guitar 1:                      Guitar 1:
e|-----------------------|     e|----------------------------|
B|-----------------------|     B|----------------------------|
G|-----------------------|     G|----------------------------|
D|------------7----9--7--|     D|----------------------------|
A|-9--9--7--9-5----7--5--|     A|-7--7--7--7-7-4----4--4--4--|
E|-7--7--5--7------------| x3  E|-5--5--5--5-5-2----2--2--2--|

Guitar 1:
e|-------------------------------------------------------|
B|-------------------------------------------------------|
G|-5-5-5-5-5-5-5-5-5-5-5-5-5-5-5-5-4--4--4----4--4-4-4-4-|
D|-5-5-5-5-5-5-5-5-5-5-5-5-5-5-5-5-4--4--4----4--4-4-4-4-|
A|-3-3-3-3-3-3-3-3-3-3-3-3-3-3-3-3-2--2--2----4--2-2-2-2-|
E|-------------------------------------------------------|
Guitar 2:
e|-------------------------------------------------------|
B|----------------------------------------12-------------|
G|----------------------------------------11----9--------|
D|-------------------------------------------------12----|
A|-------------------------------------------------------|
E|-------------------------------------------------------|

Guitar 1:
e|-------------------------------------------------------|
B|-------------------------------------------------------|
G|-5-5-5-5-5-5-5-5-5-5-5-5-5-5-5-5-4--4--4----4--4-4-4-4-|
D|-5-5-5-5-5-5-5-5-5-5-5-5-5-5-5-5-4--4--4----4--4-4-4-4-|
A|-3-3-3-3-3-3-3-3-3-3-3-3-3-3-3-3-2--2--2----4--2-2-2-2-|
E|-------------------------------------------------------| x2
Guitar 2:
e|-------------------------------------------------------|
B|----------------------------------------12-------------|
G|----------------------------------------11----9--------|
D|-10~~~~~~~~--------------------------------------12----|
A|-------------------------------------------------------|
E|-------------------------------------------------------| x2

Guitar 1:
e|-----------------------------------------------------------------|
B|-----------------------------------------------------------------|
G|-5-5-5-5-5-5-5-5-5-5-5-5-5-5-5-5-7-7-7-7-7-7-7-7-7-7-7-7-7-7-7-7-|
D|-5-5-5-5-5-5-5-5-5-5-5-5-5-5-5-5-7-7-7-7-7-7-7-7-7-7-7-7-7-7-7-7-|
A|-3-3-3-3-3-3-3-3-3-3-3-3-3-3-3-3-5-5-5-5-5-5-5-5-5-5-5-5-5-5-5-5-|
E|-----------------------------------------------------------------|
Guitar 2:
e|-----------------------------------------------------------------|
B|-----------------------------------------------------------------|
G|-----------------------------------------------------------------|
D|-10~~~~~~~~------------------------------------------------------|
A|-----------------------------------------------------------------|
E|-----------------------------------------------------------------|

Guitar 1:                      Guitar 1:
e|-----------------------|     e|----------------------------|
B|-----------------------|     B|----------------------------|
G|-----------------------|     G|----------------------------|
D|------------7----9--7--|     D|----------------------------|
A|-9--9--7--9-5----7--5--|     A|-7--7--7--7-7-4----4--4--4--|
E|-7--7--5--7------------| x3  E|-5--5--5--5-5-2----2--2--2--|

Guitar 1:                      Guitar 1:
e|-----------------------|     e|----------------------------|
B|-----------------------|     B|----------------------------|
G|-----------------------|     G|----------------------------|
D|------------7----9--7--|     D|----------------------------|
A|-9--9--7--9-5----7--5--|     A|-7--7--7--7-7-4----4--4--4--|
E|-7--7--5--7------------| x3  E|-5--5--5--5-5-2----2--2--2--| x2

Guitar 1:
e|-------------------------------------------------------|
B|-------------------------------------------------------|
G|-5-5-5-5-5-5-5-5-5-5-5-5-5-5-5-5-4--4--4----4--4-4-4-4-|
D|-5-5-5-5-5-5-5-5-5-5-5-5-5-5-5-5-4--4--4----4--4-4-4-4-|
A|-3-3-3-3-3-3-3-3-3-3-3-3-3-3-3-3-2--2--2----4--2-2-2-2-|
E|-------------------------------------------------------|
Guitar 2:
e|-------------------------------------------------------|
B|----------------------------------------12-------------|
G|----------------------------------------11----9--------|
D|-------------------------------------------------12----|
A|-------------------------------------------------------|
E|-------------------------------------------------------|

Guitar 1:
e|-------------------------------------------------------|
B|-------------------------------------------------------|
G|-5-5-5-5-5-5-5-5-5-5-5-5-5-5-5-5-4--4--4----4--4-4-4-4-|
D|-5-5-5-5-5-5-5-5-5-5-5-5-5-5-5-5-4--4--4----4--4-4-4-4-|
A|-3-3-3-3-3-3-3-3-3-3-3-3-3-3-3-3-2--2--2----4--2-2-2-2-|
E|-------------------------------------------------------| x2
Guitar 2:
e|-------------------------------------------------------|
B|----------------------------------------12-------------|
G|----------------------------------------11----9--------|
D|-10~~~~~~~~--------------------------------------12----|
A|-------------------------------------------------------|
E|-------------------------------------------------------| x2

Guitar 1:
e|-----------------------------------------------------------------|
B|-----------------------------------------------------------------|
G|-5-5-5-5-5-5-5-5-5-5-5-5-5-5-5-5-7-7-7-7-7-7-7-7-7-7-7-7-7-7-7-7-|
D|-5-5-5-5-5-5-5-5-5-5-5-5-5-5-5-5-7-7-7-7-7-7-7-7-7-7-7-7-7-7-7-7-|
A|-3-3-3-3-3-3-3-3-3-3-3-3-3-3-3-3-5-5-5-5-5-5-5-5-5-5-5-5-5-5-5-5-|
E|-----------------------------------------------------------------|
Guitar 2:
e|-----------------------------------------------------------------|
B|-----------------------------------------------------------------|
G|-----------------------------------------------------------------|
D|-10~~~~~~~~------------------------------------------------------|
A|-----------------------------------------------------------------|
E|-----------------------------------------------------------------|

Guitar 1:
e|----------------------------------------------------------------|
B|-12--10--12-----------12--10--12-----------12--10--12-----------|
G|-11---9--11-----------11---9--11-----------11---9--11-----------|
D|----------------------------------------------------------------|
A|----------------------------------------------------------------|
E|----------------------------------------------------------------|
Guitar 2:
e|----------------------------------------------------------------|
B|----------------------------------------------------------------|
G|----------------------------------------------------------------|
D|-------------7--9--7--------------7--9--7--------------7--9--7--|
A|-------------5--7--5--------------5--7--5--------------5--7--5--|
E|----------------------------------------------------------------|

Guitar 1:
e|----------------------------|     e|-----------------------|
B|----------------------------|     B|-----------------------|
G|----------------------------|     G|-----------------------|
D|----------------------------|     D|-----------------------|
A|-7--7--7--7-7-4----4--4--4--|     A|-7--7--7--7-7-4--------|
E|-5--5--5--5-5-2----2--2--2--| x7  E|-5--5--5--5-5-2--------|


| /  slide up
| \  slide down
| h  hammer-on
| p  pull-off
| ~  vibrato
| +  harmonic
| x  Mute note
===============================================================================
            
Submit corrections

comments powered by Disqus
↑ Back to top | Zero Boys Tabs for Outta Style. Lyrics for acoustic guitar and electric guitar. Tablatures and chords are parodies/interpretations of the original songs. You may use it for private study, scholarship, research or language learning purposes only