» » »

Civilizations Dying Bass tabs (ver.1)

Artists:  A B C D E F G H I J K L M N O P Q R S T U V W X Y Z # 

Civilizations Dying Bass tabs (ver.1)

Zero Boys
Rating:
0/5 (0 votes)

Hard to play? Try these video lessons and learn fast.
                Civilization's Dying

Intro (guitar only) Then slide to verse 
     (At 4.5 seconds into the song)
G--------------------------------------| *For the intro slide from D (A-5)
D--------------------------------------| all the way to B#(A-2)Then straight
A---\5----(2)--------------------------| into the verse.
E--------------------------------------|

Verse (Part One)
G-------------------------------------------------|
D-------------------------------------------------|
A-2222------2222------2222---------44556677665544-|
E------3333------3333------3333--55---------------|

Verse (Part Two)
G-------------------------------------------------|
D-------------------------------------------------|
A-2222------2222------2222------------------------|
E------3333------3333------3333--55555-55-33-22-0-|

Chorus
G-------------------|
D-------------------|
A-5----2---------0--|
E-----------3-------|

END ON D 
            
Hard to play? Try these video lessons and learn fast. | Correct




comments powered by Disqus
↑ Back to top | Tablatures and chords are parodies/interpretations of the original songs. You may use it for private study, scholarship, research or language learning purposes only