» » »

Amphetamine Addiction Bass tabs (ver.1)

Artists:  A B C D E F G H I J K L M N O P Q R S T U V W X Y Z # 

Amphetamine Addiction Bass tabs (ver.1)

Zero Boys
Rating:
0/5 (0 votes)

Hard to play? Try these video lessons and learn fast.
                
Intro
G-------------------------------------------------------|
D-------------------------------------------------------|
A-77777777-9/10-9-10-9-10-9-77777777-5555---------------|
E-----------------------------------------7-5\12(HOLD)--|

Verse               (Play this through solo too)
G----------------------------------------------|
D----------------------------------------------|
A-77777-10-7-----------------------------------|
E------------8---7-----------------------------|

Chours
G---------------------------------------------------------|
D---------------------------------------------------------|
A-55555-5555-7---55555-------------55555-5555-7---55555---|
E------5--------------5-7777-7----------5---------------5-|
            
Hard to play? Try these video lessons and learn fast. | Correct




comments powered by Disqus
↑ Back to top | Tablatures and chords are parodies/interpretations of the original songs. You may use it for private study, scholarship, research or language learning purposes only