» » »

Zero Assoluto, Tutte Le Cose Tabs (ver.1)

Artists:  A B C D E F G H I J K L M N O P Q R S T U V W X Y Z # 

Tutte Le Cose Tabs (ver.1)

Zero Assoluto Tabs
Rating:
0/5 (0 votes)
Tutte Le Cose lessons Tabs too difficult? Try these video lessons and learn fast
                E|-1-1-1-1-1------3-3-0--0-0-3-3-0--0-0-3-3-0-|
B|-1-1-1-1-1--0-0-0-0-0--1-1-1-1-1--1-1-1-1-1-|
G|-2-2-2-2-2--0-0-0-0-0--2-2-2-2-2--0-0-0-0-0-|
D|-3-3-3-3-3--0-0-0-0-0--2-2-2-2-2--2-2-2-2-2-| 3 VOLTE
A|-3-3-3-3-3--2-2-2-2-2--0-0-0-0-0--3-3-3-3-3-|
E|-1-1-1-1-1--3-3-3-3-3--0-0-0-0-0--0-0-0-0-0-| 


E|-1-1-1-1-1------3-3-0---0-0-0-0-0-|
B|-1-1-1-1-1--0-0-0-0-0---1-1-1-1-1-|
G|-2-2-2-2-2--0-0-0-0-0---0-0-0-0-0-|
D|-3-3-3-3-3--0-0-0-0-0---2-2-2-2-2-| 
A|-3-3-3-3-3--2-2-2-2-2---3-3-3-3-3-|
E|-1-1-1-1-1--3-3-3-3-3---0-0-0-0-0-|



Fm-G-Am-C
Tutte le cose 
non so se mi capisci 
c'è un rumore 
na na na na na 

Fm-G-C-Am-G
tutte le cose 
non è affidabile 
invitarti nella casa sopra un'amaca
 
Fm-G-Am-C
tutte le cose 
guardare in alto gli aeroplani 
che poi rischi di cadere tu 

Fm-G-C
tutte le cose 
lungo la linea profonda 
del sorriso che non faccio più 

Fm-G-C-G-Am-C-
la verità è importante 
o no? 
è stare un pò in silenzio 
lasciarsi e perdonarsi 
tornare a vivere 
insieme
        Fm
insieme

E|-1-1-1-1-1------3-3-0--0-0-3-3-0--0-0-3-3-0-|
B|-1-1-1-1-1--0-0-0-0-0--1-1-1-1-1--1-1-1-1-1-|
G|-2-2-2-2-2--0-0-0-0-0--2-2-2-2-2--0-0-0-0-0-|
D|-3-3-3-3-3--0-0-0-0-0--2-2-2-2-2--2-2-2-2-2-| 
A|-3-3-3-3-3--2-2-2-2-2--0-0-0-0-0--3-3-3-3-3-|
E|-1-1-1-1-1--3-3-3-3-3--0-0-0-0-0--0-0-0-0-0-|

E|-1-1-1-1-1------3-3-0---0-0-0-0-0-|
B|-1-1-1-1-1--0-0-0-0-0---1-1-1-1-1-|
G|-2-2-2-2-2--0-0-0-0-0---0-0-0-0-0-|
D|-3-3-3-3-3--0-0-0-0-0---2-2-2-2-2-| 
A|-3-3-3-3-3--2-2-2-2-2---3-3-3-3-3-|
E|-1-1-1-1-1--3-3-3-3-3---0-0-0-0-0-|
 

Fm-G-Am-C
tutte le cose 
all'improvviso un'onda 
che ci spoglia e che ci porta qui 

tutte le cose 
che fine fanno i sogni 
alle undici 

tu 
stringimi 
sovrastami 
poi perdimi 
riprendimi 
e mangiami 
e cambiami 
disegnami 
stupiscimi

Fm-G-C-G-Am-C-
la verità è importante 
o no? 
è stare un pò in silenzio 
lasciarsi e perdonarsi 
tornare a vivere 
insieme
        Fm 
insieme 
E|-1-1-1-1-1------3-3-0--0-0-3-3-0--0-0-3-3-0-|
B|-1-1-1-1-1--0-0-0-0-0--1-1-1-1-1--1-1-1-1-1-|
G|-2-2-2-2-2--0-0-0-0-0--2-2-2-2-2--0-0-0-0-0-|
D|-3-3-3-3-3--0-0-0-0-0--2-2-2-2-2--2-2-2-2-2-| 3 VOLTE
A|-3-3-3-3-3--2-2-2-2-2--0-0-0-0-0--3-3-3-3-3-|
E|-1-1-1-1-1--3-3-3-3-3--0-0-0-0-0--0-0-0-0-0-| 


E|-1-1-1-1-1------3-3-0---0-0-0-0-0-|
B|-1-1-1-1-1--0-0-0-0-0---1-1-1-1-1-|
G|-2-2-2-2-2--0-0-0-0-0---0-0-0-0-0-|
D|-3-3-3-3-3--0-0-0-0-0---2-2-2-2-2-| 
A|-3-3-3-3-3--2-2-2-2-2---3-3-3-3-3-|
E|-1-1-1-1-1--3-3-3-3-3---0-0-0-0-0-|
            
Submit corrections

comments powered by Disqus
↑ Back to top | Zero Assoluto Tabs for Tutte Le Cose. Lyrics for acoustic guitar and electric guitar. Tablatures and chords are parodies/interpretations of the original songs. You may use it for private study, scholarship, research or language learning purposes only