>
 >
Tu Come Stai

Tu Come Stai Bass Tabs

Zero Assoluto - Tu Come Stai chords, tabs, tablatures, lyrics

Guitar lessons | Add/correct | Request | Top 50 tabs Artists:  A B C D E F G H I J K L M N O P Q R S T U V W X Y Z 0-9

Tu Come Stai Bass Tabs – Zero Assoluto

CD, Sheet music, Poster

Do you like Tu Come Stai? Share with your friends now
Bass Tabs
+++++++++++++++++++++++++++++++
| Zero Assoluto- Tu Come Stai |
+++++++++++++++++++++++++++++++


"Ma se un giorno tu trovassi le parole
forse quel giorno capiró le tue paure..."

Tuning: Standard EADG


Intro
1.
G|-----------------------------------------------------------------|
D|-3-3-3-1---------3-3-3-1---------3-3-3-1---------3-3-3-1---------|
A|---------3-1-------------3-1-------------3-1-------------3-1-----|
E|-------------4-0-------------4-0-------------4-0-------------4-0-|

Chorus
"É successo cosa non so..."
2.
G|-----------------------------------------------------------------|
D|-----------------------------------------------------------------|
A|-----------------4-4-4-4-1-1-1-1-----------------4-4-4-4-1-1-1-1-|--x2
E|-1-1-1-1-4-4-4-4-----------------1-1-1-1-4-4-4-4-----------------|

Verse
"É passato un po' troppo..."
3.
G|-----------------------------------------------------------------|
D|-----------------------------------------------------------------|
A|-----------------4---444---1-1-1-----------------4---444---1-1-1-|--x4
E|-1-1-1-1---4-4-4-----------------1-1-1-1---4-4-4-----------------|

Chorus
"Ma tu tu, ma tu tu..."
4.
G|-----------------------------------------------------------------|
D|-----------------------------------------------------------------|
A|-----------------4-4-4-4-1-1-1-1-----------------4-4-4-4-1-1-1-1-|--x2
E|-1-1-1-1-4-4-4-4-----------------1-1-1-1-4-4-4-4-----------------|

Verse
"Che succede se ti chiamo..."
5.
G|-----------------------------------------------------------------|
D|-----------------------------------------------------------------|
A|-----------------4---444---1-1-1-----------------4---444---1-----|
E|-1-1-1-1---4-4-4-----------------1-1-1-1---4-4-4-----------------|

"Dei tuoi sentimenti spenti..."
6.
G|-----------------------------------------------------------------|
D|-----------------------------------------------------------------|
A|-----------------4-4-4-4-1-1-1-1-----------------4-4-4-4-1-1-1-1-|
E|-1-1-1-1-4-4-4-4-----------------1-1-1-1-4-4-4-4-----------------|

"C'ho pensato pure troppo..."
7.
G|-----------------------------------------------------------------|
D|-----------------------------------------------------------------|
A|-----------------4--4----1-----------------------4-4-4-4-1-1-1-1-|
E|-1-1-------4-----------------------------------------------------|

Chorus
"Ma tu tu, ma tu tu..."
8.
G|-----------------------------------------------------------------|
D|-----------------------------------------------------------------|
A|-----------------4-4-4-4-1-1-1-1-----------------4-4-4-4-1-1-1-1-|--x2
E|-1-1-1-1-4-4-4-4-----------------1-1-1-1-4-4-4-4-----------------|

Outro
"Tutto é troppo semplice..."
9.
G|-----------------------------------------------------------------|
D|-----------------------------------------------------------------|
A|-----------------------------------------------------------------|
E|-1-1-------1-----1-1-------1----1-1------1-----1--1--------1-----|

Bridge
"Ma se un giorno tu trovassi le parole..."
10.
G|-----------------------------------------------------------------|
D|-----------------------------------------------------------------|
A|-----------------4-4-4-4-1-1-1-1-----------------4-4-4-4-1-1-1-1-|
E|-1-1-1-1-4-4-4-4-----------------1-1-1-1-4-4-4-4-----------------|


Lyrics:

Tu come stai... 
è successo cosa non so tu lo dirai 
fino a ieri andava tutto bene come mai
dimmi cosa credi tu non sai 
dimmi cosa credi tu non vuoi 
dimmi che sei sempre tu chi sei 
dimmi adesso se ti va 

è passato un pò troppo di tempo 
come stai 
troppo tempo che non sei quella che sai che vuoi 
forse c'è qualche cosa che non va 
(dimmi cosa credi tu...) 
forse non sai più che conta 
(che sei sempre tu) 
quella che dice quello che pensa sempre 
quella che sa guardare nel fondo della gente 
(o parli chiaro o ti arrendi... 
dimmi cosa resterà...quello che senti?) 
o ti confessi o ti tieni tutto dentro 
(dimmi adesso se ti va di perdere tempo) 

che succede se ti chiamo non rispondi 
no, no, non vuoi uscire da giorni... 
se ti guardo ti volti 
tu che se hai un problema lo risolvi 
(che si fa?) 
ora tu mi parli 

dei tuoi sentimenti spenti 
tutti quei momenti che fino a ieri mi sembravano presenti) 
o cerchi l'occasione dove questa situazione trovi conclusione 
(c'ho pensato pure troppo) 
dimmi allora che è così 
(dimmi che c'è sotto) 
ah ah...hai provato a parlare lo stesso 
(dimmi che non mi vuoi più) 
dimmelo tu adesso 

tutto è troppo semplice 
se non sai distinguere 
parlano dei tuoi silenzi 
dicono quello che pensi 
contano di più 
più di mille chiarimenti 

ma se un giorno tu trovassi le parole 
forse quel giorno capirò le tue paure 
ma adesso non riesco a non lasciarti 
(forse sto buttando tutto 
non senza rimpianti) 



+++++++++++++++++++++++++++++++++
| RaiLeff                       |
+++++++++++++++++++++++++++++++++





Comments


Popular Zero Assoluto tabs & chords
Scappare Bass Tabs
Appena Prima Di Partire Chords
Non Guardarmi Cosi Chords
Roma (Che Non Sorridi Quasi Mai) Chords
Scappare Chords
Volano I Pensieri Chords
Cose Normale Ukulele
Per Dimenticare Ukulele
Seduto Qua Ukulele
Sei Parte Di Me Ukulele


Song lyrics



↑ Back to top | Tablatures and chords are parodies/interpretations of the original songs. You may use it for private study, scholarship, research or language learning purposes only
© 2014 AZChords.com Contact us | Privacy policy | DMCA | Add/correct tabs | Request tabs | Top 50 tabs