» » »

Svegliarsi La Mattina Bass tabs (ver.1)

Artists:  A B C D E F G H I J K L M N O P Q R S T U V W X Y Z # 

Svegliarsi La Mattina Bass tabs (ver.1)

Zero Assoluto
Rating:
0/5 (0 votes)

Hard to play? Try these video lessons and learn fast.
                ++++++++++++++++++++++++++++++++++++++++
| Zero Assoluto- Svegliarsi La Mattina |
++++++++++++++++++++++++++++++++++++++++

Tuning: EADG

Altra bella canzione di Zero Assoluto

Intro
1.
G|-----------------------------------------------------------------|
D|-----------------------------------------------------------------|
A|---2-2-2-----------5-5-5-----------2-2-2-----------5-5-5---------|
E|-0-------0-3-3-3-0-------0-5-5-5-0-------0-3-3-3-0-------0-5-5-5-|

Verse
"Arriverá qualuno che si prenderá..."
2.
G|-----------------------------------------------------------------|
D|-----------------------------------------------------------------|
A|---2-2-2-----------5-5-5-----------2-2-2-----------5-5-5---------|--x2
E|-0-------0-3-3-3-0-------0-5-5-5-0-------0-3-3-3-0-------0-5-5-5-|

Pre-Chorus
"Solo con te..."
3.
G|-----------------------------------------------------------------|
D|-----------------------------------------------------------------|
A|-------------------2-2-2-2-2-2-2---------------------------------|
E|-0-3-3-3-3-3-3-3-0---------------0-3-3-3-3-3-3-3-0-2-2-2-2-5-5-5-|

Chorus
"E svegliarsi la mattina..."
4.
G|-----------------------------------------------------------------|
D|-----------------------------------------------------------------|
A|---5-5-5-----------2-2-2-----------5-5-5-----------2-2-2---------|--x2
E|-0-------0-2-2-2-0-------0-3-3-3-0-------0-2-2-2-0-------0-3-3-3-|

Verse
"Sai cosa c'é má..."
5.
G|-----------------------------------------------------------------|
D|-----------------------------------------------------------------|
A|---2-2-2-----------5-5-5-----------2-2-2-----------5-5-5---------|
E|-0-------0-3-3-3-0-------0-5-5-5-0-------0-3-3-3-0-------0-5-5-5-|

"Lo voglio fare davvero basta un attimo..."
6.
G|-----------------------------------------------------------------|
D|-----------------------------------------------------------------|
A|---2-2-2-----------5-5-5-----------2-2-2-------------------------|
E|-0-------0-3-3-3-0-------0-5-5-5-0-------0-3-3-3-0-----------0-5-|

Pre-Chorus
"Solo con te..."
7.
G|-----------------------------------------------------------------|
D|-----------------------------------------------------------------|
A|-------------------2-2-2-2-2-2-2---------------------------------|
E|-0-3-3-3-3-3-3-3-0---------------0-3-3-3-3-3-3-3-0-2-2-2-2-5-5-5-|

Chorus
"E svegliarsi la mattina..."
8.
G|-----------------------------------------------------------------|
D|-----------------------------------------------------------------|
A|---5-5-5-----------2-2-2-----------5-5-5-----------2-2-2---------|--x2
E|-0-------0-2-2-2-0-------0-3-3-3-0-------0-2-2-2-0-------0-3-3-3-|

Outro
9.
G|-----------------------------------------------------------------|
D|-----------------------------------------------------------------|
A|---2-2-2-2-2-2-2-------------------2-2-2-2-2-2-2-2---------------|
E|-0---------------0-2-2-2-2-2-2-2-0-----------------0-0-0-0-0-0-0-|

10.
G|---------------------------------|
D|---------------------------------|
A|---2-2-2-2-2-2-2-2---------------|
E|-0-----------------3~------3-3-3-|

Bridge
"Ogni giorno..."
11.
G|----------------------------------------|
D|----------------------------------------|
A|---2~-----------------------------------|
E|-0-----------0-3~-------0-2~----0-5~----|

12.
G|-----------------------------------------------------------------|
D|-----------------------------------------------------------------|
A|---5-5-5-----------2-2-2-----------5-5-5-----------2-2-2---------|--x2
E|-0-------0-2-2-2-0-------0-3-3-3-0-------0-2-2-2-0-------0-3-3-3-|

Chorus
"Svegliarsi la mattina..."
13.
G|-----------------------------------------------------------------|
D|-----------------------------------------------------------------|
A|---5-5-5-----------2-2-2-----------5-5-5-----------2-2-2---------|--x2
E|-0-------0-2-2-2-0-------0-3-3-3-0-------0-2-2-2-0-------0-3-3-3-|

Outro
14.
G|-----------------------------------------------------------------|
D|-----------------------------------------------------------------|
A|---5-5-5-0-------0-2-2-2-0---------5-5-5-0-------0-2-2-2---------|
E|-0---------2-2-2-----------3-3-3-0---------2-2-2---------0-3-3-3-|


Lyrics:


Arriverà qualcuno che si prenderà il mio posto
e allora io starò solo a guardare.
Mi metterò seduto con lo sguardo fisso su di te
perché ho imparato ad aspettare.
Sono due giorni che camminiamo tre metri sopra al cielo.
E proprio adesso che ci penso mi ricordo
quante volte non ti ho perso per un pelo ma.
Solo con te, ma tu,
non ho bisogno neanche di pensare

E svegliarsi la mattina,
con la voglia di parlare solo con te
e non è niente di speciale ma
questo mi fa stare bene, solo con te

Sai cosa c'è ma cosa ci sta quando in fondo ad una storia
nessuno sa come andrà
tu mi spiazzi, ogni volta che mi guardi, mi parli persa nei tuoi traguardi
lo voglio fare davvero basta un attimo
lo voglio fare davvero se so che ti ho
non c'è situazione che spaventa,
solo con te quella voglia che ritorna.
Solo con te, ogni giorno ti trovo nel mio mondo se stai con me,
non c'è bisogno neanche di pensare

Ogni giorno ti trovo nel mio mondo se stai con me,
non c'è bisogno neanche di pensare.

+++++++++++++++++++++++++++++++++
| RaiLeff                       |
+++++++++++++++++++++++++++++++++
            
Hard to play? Try these video lessons and learn fast. | Correct




comments powered by Disqus
↑ Back to top | Tablatures and chords are parodies/interpretations of the original songs. You may use it for private study, scholarship, research or language learning purposes only