» » »

Zero Assoluto, Semplicemente Bass tabs (ver.1)

Artists:  A B C D E F G H I J K L M N O P Q R S T U V W X Y Z # 

Semplicemente Bass tabs (ver.1)

Zero Assoluto Tabs
 Rating:
4/5 (4 votes)
Semplicemente lessons Tabs too difficult? Try these video lessons and learn fast
1
                ++++++++++++++++++++++++++++++++
| Zero Assoluto- Semplicemente |
++++++++++++++++++++++++++++++++


"Dormire senza voglia di alzarmi..."

Tuning: EADG


Verse
"Ora che mi sento bene..."
1.
G|---------------------------------------------------------|
D|---------------------------------------------------------|
A|---------------0~--0-0~--0-------------------------------|
E|-3~--3-3~--3-3-------------3-2~--2-2~--2-2-3~--3-3~--3-3-|

"Spero di riuscire a dimostrare..."
2.
G|---------------------------------------------------------|
D|--2h4~--2h4~---------------------------------------------|
A|---------------0~--0-0~--0-------------------------------|
E|---------------------------3-2~--2-2~--2-2-3~--3-3~--3-2-|

"Ora che ci penso mi perdo in quell'attimo..."
3.
G|---------------------2~----------------------------------|
D|-------2~------------------------------------------------|
A|---------------0~--0-----0-------------------------------|
E|-0~--0-----0-0-------------3-2~--2-2~--2-2-3~--3-3~--3-3-|

"E ora che é successo fa lo stesso..."
4.
G|---------------------2~--------------------------------7-|
D|-----------------------------------------------------7---|
A|---------------0~--0-----0-------------------------------|
E|-3~--3-3~--3-3-------------3-2~--2-2~--2-2-3~--3-3~------|

Pre-Chorus
"Buona notte a te, buona notte a me..."
5.
G|---------------------------------------------------------|
D|-------2~------------------------------------------------|
A|-------------------------------------------0~--0-0~--0-0-|--x2
E|-0~--0-----0-0-2~--2-2~--2-2-3~--3-3~--3-3---------------|

Chorus
"Semplicemente, semplicemente..."
6.
G|-------------------------------------------------------7-|
D|--2h4~--2h4~---------2~--------------------0~--0-0~--7---|
A|---------------------------------------------------------|
E|---------------0~--0-----0-0-3~--3-3~--3-3---------------|

"Semplicemente, semplicemente..."
7.
G|-------------------------------------------------------7-|
D|---------------------2~--------------------0~--0-0~--7---|
A|-2~--2-2~--2-2-------------------------------------------|
E|---------------0~--0-----0-0-3~--3-3~--3-3---------------|

Verse
"La voglia di non ragionare, ma vivere..."
8.
G|---------------------------------------------------------|
D|-------------------------------------------0~--0~--------|
A|-2~------------0~----------------------------------4--5~-|--x2
E|-----------------------------3~--------------------------|

"Come i libri della scuola fra le dita..."
9.
G|---------------------------------------------------------|
D|--2h4~-------------------------------------0~--0~--------|
A|---------------0~----------------------------------4--5~-|
E|-----------------------------3~--------------------------|

"Poteva andare meglio, puó darsi..."
10.
G|---------------------------------------------------------|
D|-------------------------------------------0~--0~--------|
A|-2~------------0~--------------------------------------5-|
E|-----------------------------3~----------------------5---|

Pre-Chorus
"Se ci penso ora, se ci penso adesso..."
11.
G|---------------------------------------------------------|
D|---------------------------------------------------------|
A|-------------------------------------------0~------------|
E|-0~------------2~------------3~----------3-------------2-|

"Perchè mi manca il fiato..."
12.
G|---------------------------------------------------------|
D|---------------------------------------------------------|
A|-------------------------------------------0~------------|
E|-0~----------0-2~------------3~----------3---------------|

"Semplicemente..."
13.
G|---------------------------------------------------------|
D|-------------------------------------------0~--0~--------|
A|-2~----------------------------------------------------5-|--x2
E|---------------0~----------0-3~----------------------5---|

Chorus
"Buona notte a te, buona notte a me..."
14.
G|---------------------------------------------------------|
D|---------------------2~--------------------0~--0-0~------|
A|-2~--2-2~--2-2-----------------------------------------5-|--x2
E|---------------0~--0-----0-0-3~--3-3~--3-3-----------5---|

"Semplicemente, semplicemente..."
15.
G|---------------------------------------------------------|
D|---------------------2~--------------------0~--0-0~------|
A|-2~--2-2~--2-2-----------------------------------------5-|--x2
E|---------------0~--0-----0-0-3~--3-3~--3-3-----------5---|

Outro
16.
G|---------------------------------------------------------------------|
D|---------------------------------------------------------------------|
A|-0----0~----5~----0----0~----5~----0----0~----5~----0----0~----5~----|
E|---------------------------------------------------------------------|


Lyrics:


Ora che mi sento bene, 
Spengo la luce
Spero di riuscire a dimostrare che
Cosí va bene

Ora che ci penso mi perdo in quell'attimo
Dove dicevo che tutto era fantastico
Mi sembra ieri
E ora che é successo fa lo stesso
Se non ti cerco non vuol dire che mi hai perso
Già sto sognando... ma adesso

Buona notte a te, buona notte a me
Buona notte a chi ancora non ho incontrato
Buona notte pure a lei, lei te dove sei
Anche oggi che ti ho cercata

Buona notte a te, buonanotte a me
Buona notte a chi ancora non ho incontrato
Buona notte pure a lei
Anche oggi che ti vorrei 

Semplicemente, semplicemente...

La voglia di non ragionare, ma vivere
Sempre disposto a rischiare e ridere
Riderne, la gioia di quest'attimo
Senza pensarci troppo, solo gustandolo

Le stesse storie e quei percorsi che non cambiano
Quelle canzoni e le passioni che rimangono
Semplicemente non scordare nananananana

Come i libri della scuola fra le dita
La colazione ogni mattina da una vita
Semplice, come incontrarsi, perdersi
Poi ritrovarsi, amarsi, lasciarsi

Poteva andare meglio puó darsi
Dormire senza voglia di alzarmi
E faccio quello che mi pare nananananana

Se ci penso ora, se ci penso adesso
Non so ancora che cosa ne sará
Perchè mi manca il fiato
Perchè ti cerco ancora
Non so dove che cosa ci sará

Semplicemente, semplicemente...



+++++++++++++++++++++++++++++++++
| RaiLeff                       |
+++++++++++++++++++++++++++++++++
            
Submit corrections

comments powered by Disqus
↑ Back to top | Zero Assoluto Bass for Semplicemente. Lyrics for acoustic guitar and electric guitar. 1 Tablatures and chords are parodies/interpretations of the original songs. You may use it for private study, scholarship, research or language learning purposes only