» » »

Zero Assoluto, Scappare Bass tabs (ver.1)

Artists:  A B C D E F G H I J K L M N O P Q R S T U V W X Y Z # 

Scappare Bass tabs (ver.1)

Zero Assoluto Tabs
Rating:
0/5 (0 votes)
Scappare lessons Tabs too difficult? Try these video lessons and learn fast
                +++++++++++++++++++++++++++
| Zero Assoluto- Scappare | 
+++++++++++++++++++++++++++ 


"Tanto ritorno perche il mio posto é qua..."

Tuning: Standard EADG


Verse
"Ci sta un momento..."
1.
G|-----------------------------------------------|
D|-----------------------------------------------|
A|-5~---------5~----------5~---------5~----------|
E|-----3~---2------5~--55-----3~---2------5~--55-|

"Spero sempre..."
2.
G|-----------------------------------------------|
D|-----------------------------------------------|
A|-5~---------5~----------2~---------5~----------|
E|-----3~---2------5~--55-----3~---2------5~--55-|

Chorus
"Scappare..."
3.
G|-----------------------------------------------|
D|-----------------------------------------------|
A|-5~---------5~----------5~---------5~----------|
E|-----3~---2------5~--55-----3~---2------5~--55-|

"Tempo di pensare..."
4.
G|-----------------------------------------------|
D|-----------------------------------------------|
A|-5~---------5~----------2~---------5~----------|
E|-----3~---2------5~--55-----3~---2------5~--55-|

Outro
"Tu non sai..."
5.
G|--------------------------------------------|
D|--------------------------------------------|
A|-22~-------------------22~--------0~--------|
E|------------22~-----------------------------|

Verse
"Oggi so che é solo un momento..."
6.
G|-----------------------------------------------|
D|-----------------------------------------------|
A|-5~---------5~----------2~---------5~----------|
E|-----3~---2------5~--55-----3~---2------5~--55-|

Chorus
"Scappare..."
7.
G|-----------------------------------------------|
D|-----------------------------------------------|
A|-5~---------5~----------5~---------5~----------|
E|-----3~---2------5~--55-----3~---2------5~--55-|

"Tempo di pensare..."
8.
G|-----------------------------------------------|
D|-----------------------------------------------|
A|-5~---------5~----------2~---------5~----------|
E|-----3~---2------5~--55-----3~---2------5~--55-|

Outro
9.
G|--------------------------------------------|
D|--------------------------------------------|
A|-22~-------------------22~--------0~--------|
E|------------22~-----------------------------|

Chorus
"Scappare..."
10.
G|-----------------------------------------------|
D|-----------------------------------------------|
A|-5~---------5~----------5~---------5~----------|
E|-----3~---2------5~--55-----3~---2------5~--55-|

"Tempo di pensare..."
11.
G|-----------------------------------------------|
D|-----------------------------------------------|
A|-5~---------5~----------2~---------5~----------|
E|-----3~---2------5~--55-----3~---2------5~--55-|

Outro
"Fino a domani..."
12.
G|-----------------------------------------------|
D|-----------------------------------------------|
A|-5~---------5~----------5~---------5~----------|
E|-----3~---2------5~--55-----3~---2------5~--55-|

13.
G|-----------------------------------------------|
D|-----------------------------------------------|
A|-5~---------5~----------2~---------5~----------|
E|-----3~---2------5~--55-----3~---2------5~--55-|

14.
G|----|
D|----|
A|-5x-|
E|----|

Bravo
Please rate!


Lyrics:

É troppo tempo che sto sempre a parlare
E sento che mi perdo dietro ad un miraggio
E sono stanco di riuscire a trovare
Giustificazioni per quello che faccio
E se ti perdo anche solo un istante
E’ tutto inutile il senso lo dai tu a questa storia
E se ti guardo negli occhi non mi trovi più

Ci sta un momento in cui perdo di vista
Tutti gli obbiettivi e casco giù
Non voglio niente solo un po’ di silenzio
Perdermi nel tempo che non c’è più
E spero sempre che tu riesca a capirmi
E questa notte c’ho bisogno di tenerti la mano
E se mi lasci non mi trovi più

Scappare senza dire niente piuttosto pensa male di me
Ho voglia solo di andare via ma non è il caso
Che adesso te la prendi con me
Il tempo di pensare tanto ritorno perché il mio posto è qua
Un giorno per scappare, tutto mi torna
E mi nascondo fino a domani

Tu non sai il tempo che ci penso

Oggi che non so che fare
Libero pure di non pensare a come stare
Oggi che mi svuoto la testa
Lascio i miei pensieri di ieri niente fretta
Oggi so che è solo un momento
Giusto un po’ prendo fiato e poi scendo
Oggi puoi basta che vuoi
Fuori dal mondo questa sera siamo noi

Ho bisogno di fermare non mi rincorrere
E se hai bisogno di capire non lo pretendere
e stasera non insistere
Questa volta non mi va



+++++++++++++++++++++++++++++++++
| RaiLeff                       |
+++++++++++++++++++++++++++++++++
            

comments powered by Disqus
↑ Back to top | Zero Assoluto Bass for Scappare. Lyrics for acoustic guitar and electric guitar. Tablatures and chords are parodies/interpretations of the original songs. You may use it for private study, scholarship, research or language learning purposes only