» » »

Zero Assoluto, Per Dimenticare Bass tabs (ver.1)

Artists:  A B C D E F G H I J K L M N O P Q R S T U V W X Y Z # 

Per Dimenticare Bass tabs (ver.1)

Zero Assoluto Tabs
 Rating:
4/5 (4 votes)
Per Dimenticare lessons Tabs too difficult? Try these video lessons and learn fast
1
                ++++++++++++++++++++++++++++++++++
| Zero Assoluto- Per Dimenticare |
++++++++++++++++++++++++++++++++++


"E forse partiró..."

Tuning: EADG


Intro
1.
G|-----------------------------------------------------------------|
D|-----------------1--1--1--11-1-1-----------------2--2--2--22-2-2-|
A|-2--2--2--22-2-2-------------------------------------------------|
E|---------------------------------4--4--4--44-4-4-----------------|

Verse
"Allora quindi é vero..."
2.
G|-----------------------------------------------------------------|
D|-----------------1--1--1--11-1-1-----------------2--2/44-6666666-|
A|-2--2--2--22-2-2-------------------------------------------------|
E|---------------------------------4--4--4--44-4-4-----------------|

"E se la scelta é questa..."
3.
G|-----------------------------------------------------------------|
D|---111111--------1--1--1--11-1-1-----------------2--2/44-6666666-|
A|-2--------22-2-2-------------------------------------------------|
E|---------------------------------4--4--4--44-4-4-----------------|

Pre-Chorus
"Ti senti pronta a cambiare vita..."
4.
G|-----------------------------------------------------------------|
D|-----------------1--1--1--11-1-1---------------------------------|
A|-2--2--2--22-2-2-------------------------------------------------|
E|---------------------------------4--4--4--44-4-4-0--0--0--00-0-0-|

"Ed affrontare..."
5.
G|-----------------------------------------------------------------|
D|-----------------1--1--1--11-1-1-----------------2--2/44-6666666-|
A|-2--2--2--22-2-2-------------------------------------------------|
E|---------------------------------4--4--4--44-4-4-----------------|

Chorus
"E forse partiró per dimenticare..."
6.
G|------------------------------------------------------------------|
D|-------------------------------------------------2--2--2--22-2-2\-|
A|-2--2--2--22-2-2--------------------------------------------------|
E|-----------------2--2--2--22-2-2-4--4--4--44-4-2------------------|

"E forse partió per dimenticare..."
7.
G|-----------------------------------------------------------------|
D|-----------------1--1--1--11-1-1-----------------2--2--2-0000000-|
A|-2--2--2--22-2-2-------------------------------------------------|
E|---------------------------------4--4--4--44-4-4-----------------|

Outro
"Di te..."
8.
G|-----------------------------------------------------------------|
D|-----------------------------------------------------------------|
A|-2--2--2--22-2-2-------------------------------------------------|
E|-----------------2--2--2--22-2-2-4--4--4--44-4-2-0--0--0--00-0-0-|

Verse
"E grazie per l'invito..."
9.
G|-----------------------------------------------------------------|
D|-----------------1--1--1--11-1-1-----------------2--2--2--22-2-2-|
A|-2--2--2--22-2-2-------------------------------------------------|
E|---------------------------------4--4--4--44-4-4-----------------|

"Se avessi piú coraggio..."
10.
G|-----------------------------------------------------------------|
D|-----------------1--1--1--11-1-1-----------------2--2/44-6666666-|
A|-2--2--2--22-2-2-------------------------------------------------|
E|---------------------------------4--4--4--44-4-4-----------------|

Pre-Chorus
"Ti senti pronta a cambiare vita..."
11.
G|-----------------------------------------------------------------|
D|-----------------1--1--1--11-1-1---------------------------------|
A|-2--2--2--22-2-2-------------------------------------------------|
E|---------------------------------4--4--4--44-4-4-0--0--0--00-0-0-|

"Ed affrontare..."
12.
G|-----------------------------------------------------------------|
D|-----------------1--1--1--11-1-1-----------------2--2--2--22-2-2-|
A|-2--2--2--22-2-2-------------------------------------------------|
E|---------------------------------4--4--4--44-4-4-----------------|

Chorus
"E forse partiró per dimenticare..."
13.
G|------------------------------------------------------------------|
D|-------------------------------------------------2--2--2--22-2-2\-|
A|-2--2--2--22-2-2--------------------------------------------------|
E|-----------------2--2--2--22-2-2-4--4--4--44-4-2------------------|

"E forse partió per dimenticare..."
14.
G|-----------------------------------------------------------------|
D|-----------------1--1--1--11-1-1---------------------------------|
A|-2--2--2--22-2-2-------------------------------------------------|
E|---------------------------------4--4--4--44-4-4-0--0--0--00-0-0-|

Outro
"Di te..."
15.
G|-----------------------------------------------|
D|---------------------------------------4444444-|
A|-------------------------------------4---------|
E|-2~--------4~--------0~--------2~--------------|

Bridge
16.
G|----------------------------------------------------------------------------|
D|----------------------------------------------------------------------------|
A|-4h6~----4-2~--2-4-4/6-4~----2-1~----2-4-6~----4-2~----4-6-7~---777777-777\-|
E|----------------------------------------------------------------------------|


Lyrics:

Allora quindi è vero,
è vero che ti sposerai
Ti faccio tanti, tanti cari auguri,
e se non vengo capirai

E se la scelta è questa
è giusta lo sai solo tu
È lui l'uomo perfetto che volevi
e che non vuoi cambiare più.

Ti senti pronta a cambiare vita
a cambiare casa
a fare la spesa e fare i conti a fine mese
a la casa al mare
a d'avere un figlio un cane

Ed affrontare...
suocera, cognato, nipoti, parenti,
tombole a Natale, mal di testa ricorrente
e tutto questo per amore.

E forse partirò
per dimenticare
per dimenticarti
E forse partirò
per dimenticare
per dimenticarmi di te

E grazie per l'invito
ma proprio non ce la farò
ho proprio tanti, tanti, troppi impegni
e credo forse partirò

Se avessi più coraggio
quello che io ti direi
che quell'uomo perfetto
che volevi tu non l'hai capito mai.



+++++++++++++++++++++++++++++++++
| RaiLeff                       |
+++++++++++++++++++++++++++++++++
            
Submit corrections

comments powered by Disqus
↑ Back to top | Zero Assoluto Bass for Per Dimenticare. Lyrics for acoustic guitar and electric guitar. 1 Tablatures and chords are parodies/interpretations of the original songs. You may use it for private study, scholarship, research or language learning purposes only