» » »

Ora Che Ci Sei Bass tabs (ver.1)

Artists:  A B C D E F G H I J K L M N O P Q R S T U V W X Y Z # 

Ora Che Ci Sei Bass tabs (ver.1)

Zero Assoluto
Rating:
0/5 (0 votes)

Hard to play? Try these video lessons and learn fast.
                +++++++++++++++++++++++++++++++++
| Zero Assoluto- Ora Che Ci Sei |
+++++++++++++++++++++++++++++++++


"Questa notte scorderà la verità..."

Tuning: Standard EADG


Verse
"E come sempre..."
1.
G|---4~------2~------7~------9~------4~------2~------7~------9~----|
D|-2-------0-----------------------2-------0-----------------------|
A|-----------------------------------------------------------------|--x3
E|-----------------7-------8-----------------------7-------8-------|

Chorus
"Fidati di me..."
2.
G|-------------------------------------------------|
D|-------------------------------------------------|
A|-0~----2~----3~----5~----0~----2~----3~----5~----|
E|-------------------------------------------------|

Outro
3.
G|-----9~--------7~--------7~----------9~----|
D|---9---------7---------9----------10-------|
A|-7---------5---------9---------10----------|--x2
E|-------------------------------------------|

Verse
"Sono uno di quelli..."
4.
G|-----9~--------7~--------7~----------9~----|
D|---9---------7---------9----------10-------|
A|-7---------5---------9---------10----------|--x2
E|-------------------------------------------|

Chorus
"Ora che ci sei..."
5.
G|-------4~----5~----7~----------4~----5~----7~----|
D|-7~----------------------7~----------------------|
A|-------------------------------------------------|
E|-------------------------------------------------|

Outro
6.
G|-----9~--------7~--------7~----------9~----|
D|---9---------7---------9----------10-------|
A|-7---------5---------9---------10----------|--x4
E|-------------------------------------------|

7.
G|---4~------2~------7~------9~----|
D|-2-------0-----------------------|
A|---------------------------------|
E|-----------------7-------8-------|


Please rate thanks!!

Lyrics:


E come sempre ritorni te
Che cosa resta
Quando parli con me
E nonostante
Tutto mi dice no
Quando ti guardo 
Le risposte ce l’ho

Tante, troppe le parole che ho scritto
Tante, troppe le reazioni di getto
Quante volte ho cercato riparo
Dentro un ricordo sempre lo stesso
Ogni sera a costruire un castello
Dove chiudo tutte le tue parole
Paure, se piove
Per fermare tutto solo un momento

C’è che mi ritrovo qua
Aspettando un po’
Quello che farai
Come se
Come se la voglia di
Rimanere qui fosse solo mia 

Fidati di me
Rimaniamo qua
E questa notte scorderà la verità
E ora che ci sei 
Non andare via
E la paura si farà malinconia

Ora
Sempre
Non andare via

Sono uno di quelli che quando prova lo fa
Rischiando davvero e se la cosa non va
Va bene lo stesso
Valeva la pena di perdere 
E l’ho fatto adesso
Gioco tutto vinco o perdo

Ho capito che il momento è sempre
E non ci sono le parole
Per dirti che ci credo veramente

E ora che ci sei
Non andare via
E la paura si farà malinconia
E ora che ci sei
Cosa resterà
Se adesso prendi e scappi
Mi guardi e non mi parli
E basta coi ricordi
Ora tu

Ci sei
Che fai
Non sai
Vorrei



+++++++++++++++++++++++++++++++++
| RaiLeff                       |
+++++++++++++++++++++++++++++++++
            
Hard to play? Try these video lessons and learn fast. | Correct




comments powered by Disqus
↑ Back to top | Tablatures and chords are parodies/interpretations of the original songs. You may use it for private study, scholarship, research or language learning purposes only