» » »

Non Voltarti Mai Bass tabs (ver.1)

Artists:  A B C D E F G H I J K L M N O P Q R S T U V W X Y Z # 

Non Voltarti Mai Bass tabs (ver.1)

Zero Assoluto
Rating:
0/5 (0 votes)

Tabs too difficult? Try these video lessons and learn fast.
                +++++++++++++++++++++++++++++++++++
| Zero Assoluto- Non Voltarti Mai |
+++++++++++++++++++++++++++++++++++


"Io non ti cercherei..."


Tuning: Standard EADG

00:56
Chorus
"Non so se stare..."
1.
G|-------6~----------6~----------6~----------6~----|
D|-4~--4-------4~--4-------4~--4-------4~--4-------|
A|-------------------------------------------------|--x2
E|-------------------------------------------------|

1:36
Chorus
"Non so se stare..."
2.
G|-------6~----------6~----------6~----------6~----|
D|-4~--4-------4~--4-------4~--4-------4~--4-------|
A|-------------------------------------------------|
E|-------------------------------------------------|

"Che posso fare..."
3.
G|-------6~----------------------------------6~----|
D|-4~--4-------------6~----------4~----4~--4-------|
A|-------------4~--4-------2~--2-------------------|
E|-----------------------------------0-------------|

2:21
Bridge
4.
G|-------------------------------------------------|
D|-------------------------------------------------|
A|-2~----5~----2~----0~----2~----5~----2~----0~----|
E|-------------------------------------------------|

"Se tu tornassi indietro..."
5.
G|-------------------------------------------------|
D|-------------------------------------------------|
A|-2~----5~----2~----0~----2~----5~----2~----0~----|--x2
E|-------------------------------------------------|

Outro
6.
G|-------------------------------------------------|
D|-------------------------------------------------|
A|-2~----5~----2~----0~----2~----5~----2~----0~----|--Play until song fades...
E|-------------------------------------------------|


Please rate thanks!


Lyrics:

E la storia di te che scrivi te, delle cose che fai che vivi te
Ogni cosa che vuoi provare poi, tentare devi rischiare per forza e crederci
È la storia di lei, che scrivi te
Delle cose che fa, solo con te
C’è una luna che splende del tuo riflesso, pretende successo
Prende senza dare e chiedere

Non so se stare, se continuare
Sono stato a guardare per troppo tempo te, ho bisogno di pensare solamente a me
Che posso fare, lasciarmi andare
Sono stato a guardare per troppo tempo te, ho bisogno di pensare solamente a me

Pensa bene che vuoi e dimmelo
Trova quello che sei e buttati
Forse non c’è la fai ma c’hai provato
Basta un gesto e tutto il resto non conta più di riflesso, corri fuori da qui
E vattene, aspettavi qualcosa
Che adesso c’è, non ti darà mai quello che speri
Ma solo pensieri su pensieri su pensieri su pensieri

Non voltarti mai lo sai che ritornerà
Non voltarti mai, ritornerà
Mai ritornerà
Tu corri senza mai guardarti perchè ritornerà

Corri non voltarti mai lo sai che ritornerà
Non voltarti mai ritornerà
Mai ritornerà
Tu corri senza mai guardarti perché ritornerà

Se tu tornassi indietro non troveresti più
Quella persona che ti ha amato ed aspettato sempre, se tu tornassi indietro
E ci tornassi anche io, io non ti aspetterei
Io non ti cercherei



+++++++++++++++++++++++++++++++++
| RaiLeff                       |
+++++++++++++++++++++++++++++++++
            
Tabs too difficult? Try these video lessons and learn fast.




comments powered by Disqus
↑ Back to top | Tablatures and chords are parodies/interpretations of the original songs. You may use it for private study, scholarship, research or language learning purposes only