» » »

Mezz'ora Bass tabs (ver.1)

Artists:  A B C D E F G H I J K L M N O P Q R S T U V W X Y Z # 

Mezz'ora Bass tabs (ver.1)

Zero Assoluto
Rating:
0/5 (0 votes)

Hard to play? Try these video lessons and learn fast.
                +++++++++++++++++++++++++++
| Zero Assoluto- Mezz'Ora |
+++++++++++++++++++++++++++

Bass comes in the second chorus
1:52

Tuning: EADG

Chorus
"So che prima o poi passerá..."
1.
G|-------------------------------------------------------------------|
D|-------------------------------------------------------------------|
A|--------4-4-4-4-4-----------------------4-4-4-4-4------------------|--x2
E|--2-2-2-----------4-4-4-6-6-6-6-6-2-2-2-----------4-4-4-6-6-6-6-6--|

Outro
"Guarda come si sta..."
2.
G|-------------------------------------------------------------------|
D|-------------------------------------------------------------------|
A|--------4-4-4-4-4-----------------------4-4-4-4-4------------------|--x2
E|--2-2-2-----------4-4-4-6-6-6-6-6-2-2-2-----------4-4-4-6-6-6-6-6--|

Chorus
"So che prima o poi passerá..."
3.
G|-------------------------------------------------------------------|
D|-------------------------------------------------------------------|
A|--------4-4-4-4-4-----------------------4-4-4-4-4------------------|--x2
E|--2-2-2-----------4-4-4-6-6-6-6-6-2-2-2-----------4-4-4-6-6-6-6-6--|

Outro
4.
G|-------------------------------------------------------------------|
D|-------------------------------------------------------------------|
A|--------4-4-4-4-4-----------------------4-4-4-4-4------------------|--x2
E|--2-2-2-----------4-4-4-6-6-6-6-6-2-2-2-----------4-4-4-6-6-6-6-6--|

"Bastasse almeno mezz'ora..."
5.
G|------------------------------------------|
D|------------------------------------------|
A|------------------------------------------|
E|--5~--------2~--------5~--------2~--------|

Lyrics:

Sembra perfetto...
il cielo che ho lasciato é lo stesso che ritrovo tutto l'anno qua,
tornare...
tutto era al suo posto quasi ad aspettare che me ne tornassi qua,
da solo...
quasi a ritardare il momento di lanciarmi nella mischia
ma so che la sera tutto funziona
e che se cerchi una risposta forse ti arriva
é l'atmosfera che ti trasporta
verso la voglia che ti torna un'altra volta,
meglio la sera fuori dal mondo,
mentre il mondo mi gira tutto intorno
tra me e me che penso a quello che mi aspetta
in questa sera che mi gusto senza fretta.
Per ogni giorno che passeró
spero che possa riavere questa voglia che ho
visto che so che questo cielo si dimentica
na na na na na na...
e troppo in fretta ma...

So che prima o poi passerá  stasera...
e che tutto ritornerá  com'era...
sarebbe bello durasse almeno mezz'ora...
comunque andrá  dovrá  tornare com'era...
sarebbe bello che durasse almeno mezz'ora...

Prometto a me stesso la felicitá
senza limiti gustare tutto quello che dá
come si fa, ora so come si fa,
é un impegno che ti prende e vale quello che dá 
prometto di renderti felice come ti ho detto,
ora che ho capito tutto sará  perfetto
mi piace come si sta,
voglio passare il tempo insieme e stare come ci va,
come ti va, piuttosto cosa si fa
quando posso giuro che qualcosa si fa
quando sará  non so come sará ,
ma un altro cielo come questo so che mi cercherá ...

Guarda come si sta
quando tutto gira,
quando niente non va,
quando parlano i fatti,
quando inizi e non la smetti,
quando vedi che ti prende e non ti fermi...

Bastasse almeno mezz'ora...
mezz'ora...mezz'ora...mezz'ora...
almeno mezz'ora... 

+++++++++++++++++++++++++++++++++
| RaiLeff                       |
+++++++++++++++++++++++++++++++++
            
Hard to play? Try these video lessons and learn fast. | Correct




comments powered by Disqus
↑ Back to top | Tablatures and chords are parodies/interpretations of the original songs. You may use it for private study, scholarship, research or language learning purposes only