» » »

Zero Assoluto, Meglio Così Bass tabs (ver.1)

Artists:  A B C D E F G H I J K L M N O P Q R S T U V W X Y Z # 

Meglio Così Bass tabs (ver.1)

Zero Assoluto Tabs
 Rating:
4/5 (4 votes)
Meglio Così lessons Tabs too difficult? Try these video lessons and learn fast
                ++++++++++++++++++++++++++++++
| Zero Assoluto- Meglio Cosí |
++++++++++++++++++++++++++++++


"Ricordo ancora la cittá..."

Dedicata solo a mia bellissima e il nostro amore in Roma l'anno scorso

Tuning: Standard EADG


Verse
"Sembra passato un attimo..."
1.
G|---------------------------------------------------------------------------|
D|---------------------------------------------------------------------------|
A|-2~x--------------------------------2~x-2~x--------------------------------|
E|---------------------------------------------------------------------------|

"Se ricordare é facile..."
2.
G|------------------------------------|
D|------------------------------------|
A|-2~x--------------------------------|
E|------------------------------------|

Pre-Chorus
"Non si puó toccare..."
3.
G|-------------------------------------------|
D|-------------------------------------------|
A|----------------4/9~\4---------------------|
E|--------------------------------------12\0-|

Chorus
"Dove sta la felicitá..."
4.
G|-----------------------------------------------------------------------------------------|
D|--------------------------------------------------------4~--4~--4~-6~--6~--6~-2~--2~--2~-|
A|-2~--2~--2~----------------------------------2~--2~--2~----------------------------------|
E|------------2~--2~--2~-4~--4~--4~-0~--0~--0~---------------------------------------------|

"Ci pensi mai?"
5.
G|-----------------------------------------------------------------------------------------|
D|-----------------------------------------------------------------------------------------|
A|-2~--2~--2~----------------------------------2~--2~--2~----------------------------------|
E|------------2~--2~--2~-4~--4~--4~-0~--0~--0~------------2~--2~--2~-4~--4~--4~-0~--0~--0~-|

Pre-Chorus
"Ho voglia di restare qui con te..."
6.
G|---------------------|
D|---------------------|
A|---------------------|
E|----------------12\0-|

Bridge
7.
G|-9-8-------8-8-8-8-6-6-9~----6-6-6-6-8-6-------8-8-8-8-9-8-------9-9-9-|
D|-----9~----------------------------------9~----------------9~----------|
A|-----------------------------------------------------------------------|
E|-----------------------------------------------------------------------|

8.
G|-9-8-------8-8-8-8-6-6-------6-6-6-6-8~--------8-8-8-8-9-9---9---9---|
D|-----9~----------------9~----------------9~----------------9---9---9-|
A|---------------------------------------------------------------------|
E|---------------------------------------------------------------------|

Chorus
"Ci pensi mai?"
9.
G|-9-8-------8-8-8-8-6-6-9~----6-6-6-6-8-6-------8-8-8-8-9-8-------9-9-9-|
D|-----9~----------------------------------9~----------------9~----------|
A|-----------------------------------------------------------------------|
E|-----------------------------------------------------------------------|

"E tutto era li..."
10.
G|-9-8-------8-8-8-8-6-6-------6-6-6-6-8~------------------------------|
D|-----9~----------------9~----------------9~--------------------------|
A|---------------------------------------------------------------------|
E|---------------------------------------------------------------------|


Please rate!


Lyrics:

Allora come stai, io me la cavo bene
Sembra passato un attimo, ora che siamo insieme
E non ci penso mai mai mai a
Come sarebbe stato, se ricordare è facile
Vorrei saper restare e dirti ho voglia di te

Non vedi che stai bene pure te, ho voglia di restare qui con te
Qualcosa c’è, ma è difficile
Non si può toccare, ma vivere

Dove sta, la felicità
Adesso non puoi, o forse non vuoi
Ritrovare la complicità e, il nostro dolce fare niente
La convinzione di viverci per sempre, quella voglia e il calore che ci unisce
Tra una canzone e una giornata che finisce, dimmi che

Ci pensi mai
Io e te a dormire
Ricordo ancora la città
E tutto era li, e ci sentivamo unici
E adesso cosa ci resta, se ricordare non basta
Non vedi che stai bene pure te
ho voglia di restare qui con te

E adesso cosa ci resta, se tutto questo non basta



+++++++++++++++++++++++++++++++++
| RaiLeff                       |
+++++++++++++++++++++++++++++++++
            
Submit corrections

comments powered by Disqus
↑ Back to top | Zero Assoluto Bass for Meglio Così. Lyrics for acoustic guitar and electric guitar. Tablatures and chords are parodies/interpretations of the original songs. You may use it for private study, scholarship, research or language learning purposes only