>
 >
Appena Prima Di Partire

Appena Prima Di Partire Bass Tabs

Zero Assoluto - Appena Prima Di Partire chords, tabs, tablatures, lyrics

Guitar lessons | Add/correct | Request | Top 50 tabs Artists:  A B C D E F G H I J K L M N O P Q R S T U V W X Y Z 0-9

Appena Prima Di Partire Bass Tabs – Zero Assoluto

CD, Sheet music, Poster

Do you like Appena Prima Di Partire? Share with your friends now
Bass TabsChordsChords v2Ukulele
++++++++++++++++++++++++++++++++++++++++++
| Zero Assoluto- Appena Prima Di Partire |
++++++++++++++++++++++++++++++++++++++++++


"Ed era l'ultimo saluto, e non ci penso piú..."

Tuning: Standard EADG


Verse
"Da quando non mi hai piu cercato..."
1.
G|---------------------------------------9~--------|
D|-2~----------------------2-2~--------9-----------|
A|-----------2-----------2-------------------------|
E|-------------0~----------------------------------|

"Ed e bastato un solo sguardo..."
2.
G|-----------------------------------------------------------------|
D|------7~-7~-----------4~-4~-----------2~-2~-----------2~-2~------|
A|-0~-0-------00-0-------------------------------------------------|
E|-----------------2~-2-------22-2-0~-0-------00-0-0~-0-------00-0-|

"Anche se non puo piu tornare..."
3.
G|---------------------------------------------------------------------------13-11-9-|
D|------7~-7~-----------4~-4~---------22-2/44444-4/666----------------9-11-9---------|
A|-0~-0-------00-0-------------------------------------7-------7-9-11----------------|
E|-----------------2~-2-------22-2-0~--------------------9-7-9-----------------------|

Chorus
"Ma tu davvero..."
4.
G|---------------------------------------9~-9----9-8~-8---8------6~--------------|
D|------7~-77-6-66-2-22------4-444/6666-----------------9------------------6-4-2-|
A|-0~-0-----------------2~-2------------------7~------------4~-4----4-2~-2-------|--x2
E|-------------------------------------------------------------------------------|

Outro
"E ora che vuoi..."
5.
G|------------------------------------------------------|
D|------------------------------------------------------|
A|-0~---------------------7~-7~----------7~-7~----------|
E|-------------------0~-0-------00-0-0-0-------00-0-2-4-|

"Senza ormai piu chiedermi..."
6.
G|-----------------------------------------------------------------|
D|------7~-7~-----------4~-4~-----------2~-2~-----------2~-2~------|
A|-0~-0-------00-0-------------------------------------------------|
E|-----------------2~-2-------22-2-0~-0-------00-0-0~-0-------00-0-|

"Appena prima di partire..."
7.
G|-----------------------------------------------------------13-11-9-|
D|------7~-7~-----------4~-4~-------------------------9-11-9---------|
A|-0~-0-------00-0---------------------7-------7-9-11----------------|
E|-----------------2~-2-------22-2-0~----9-7-9-----------------------|

Chorus
"Ma tu davvero..."
8.
G|---------------------------------------9~-9----9-8~-8---8------6~--------------|
D|------7~-77-6-66-2-22------4-444/6666-----------------9------------------6-4-2-|
A|-0~-0-----------------2~-2------------------7~------------4~-4----4-2~-2-------|--x2
E|-------------------------------------------------------------------------------|

Outro
"E ora che vuoi..."
9.
G|-----------------------------------|
D|-----------------------------------|
A|-0~-----------------------7~-7~----|
E|-----------2~--------0~-0-------00-|

Bridge
10.
G|---------14~----14~---14-14-13-9-11~--11~-9-11~----13-14-14~-13------|
D|-9-11-14--------------------------------------------------------14~--|
A|---------------------------------------------------------------------|
E|---------------------------------------------------------------------|

11.
G|-14-13-14-13--------14-13-14-13-------------9-11~-----|
D|-------------14~----------------14-11~----9-----------|
A|------------------------------------------------------|
E|------------------------------------------------------|

Chorus
"Si tu di sicuro..."
12.
G|---------------------------------------9~-9----9-8~-8---8------6~--------------|
D|------7~-77-6-66-2-22------4-444/6666-----------------9------------------6-4-2-|
A|-0~-0-----------------2~-2------------------7~------------4~-4----4-2~-2-------|
E|-------------------------------------------------------------------------------|

Outro
"Ed era l'ultimo saluto..."
13.
G|---------------------------------------|
D|---------------------2~----------------|
A|-0~------------------------------------|
E|-----------2~--------------------------|


Please rate thank you!!

Lyrics:

Da quando non mi hai più cercato
Mi sembra molto più difficile
Credevo di essere più forte
Di quella sera e tutte le parole

Ed è bastato un solo sguardo
Solo una volta non lo scordi più
Rincontrarsi nei pensieri
Ritrovarsi come ieri

Anche se non può più tornare
Basta una volta e non lo scordi più
Quella sera e tutte le parole

Ma tu davvero
Non credi sia stato un piano studiato per farti del male
Si tu di sicuro
Non sei stata più sincera nel dire le cose

e ora che vuoi?
vincere tu

Senza ormai più chiedermi
Se mai ce la farò
E se domani, domani forse ritornerò
Magari un giorno poi
Poi me ne pentirò
Ma ne valeva la pena rischiare tutto o no?
Appena prima di partire
Basta una volta e non lo scordi più

Ed era l'ultimo saluto
e non ci penso più



+++++++++++++++++++++++++++++++++
| RaiLeff                       |
+++++++++++++++++++++++++++++++++





Comments


Popular Zero Assoluto tabs & chords
Cose Normale Chords
Meglio Così Chords
Non Voltarti Mai Chords
Seduto Qua Chords
Semplicemente 1 Chords
Non Voltarti Mai Ukulele
Ora Che Ci Sei Ukulele
Per Dimenticare Ukulele
Roma Che Non Sorridi Quasi Mai Ukulele
Semplicemente Ukulele


Song lyrics



↑ Back to top | Tablatures and chords are parodies/interpretations of the original songs. You may use it for private study, scholarship, research or language learning purposes only
© 2014 AZChords.com Contact us | Privacy policy | DMCA | Add/correct tabs | Request tabs | Top 50 tabs