» » »

Zeke, West Seattle Acid Party Tabs (ver.1)

Artists:  A B C D E F G H I J K L M N O P Q R S T U V W X Y Z # 

West Seattle Acid Party Tabs (ver.1)

Zeke Tabs
 Rating:
4/5 (4 votes)
West Seattle Acid Party lessons Tabs too difficult? Try these video lessons and learn fast
                west seattle acid party


zeke






e:-----------------------------|
B:--8b--5b-4b-3b--5b-4b-3b--1b-|
G:-10b--7b-6b-5b--7b-6b-5b--3b-|
D:-----------------------------|
A:-----------------------------|
E:-----------------------------|

e:------------------|
B:------------------|
G:------------------|
D:------------------|
A:-77777-1010101010-|
E:-55555-8-8-8-8-8--|

e:---------------------|
B:---------------------|
G:---------------------|
D:---------------------|
A:-1212121212-13-12-10-|
E:-1010101010-11-10-8--|

e:------------------|
B:------------------|
G:------------------|
D:------------------|
A:-77777-1010101010-|
E:-55555-8-8-8-8-8--|

e:---------------------|
B:---------------------|
G:---------------------|
D:---------------------|
A:-1212121212-13-12-10-|
E:-1010101010-11-10-8--|


:-------------------------------------------|
:-------------------------------------------|
:-------------------------------------------|
:-------------------------------------------|
:--10-10-10-10-10-10-121212121212--77777777-|
:--8--8--8--8--8--8--101010101010--55555555-|


e:----------------------------------|
B:----------------------------------|
G:----------------------------------|
D:----------------------------------|
A:-1212121212-10-10-10-10-10-777777-|
E:-1010101010-8--8--8--8--8--555555-|

:-------------------------------------------|
:-------------------------------------------|
:-------------------------------------------|
:-------------------------------------------|
:--10-10-10-10-10-10-121212121212--77777777-|
:--8--8--8--8--8--8--101010101010--55555555-|


e:----------------------------------|
B:----------------------------------|
G:----------------------------------|
D:---------------------------999999-|
A:-1212121212-10-10-10-10-10-777777-|
E:-1010101010-8--8--8--8--8---------|


solo
e:---------------|------------|
B:-7b-----7b-7---|-7bp5--7bp5-|
G:-7b-5-7-7b-7-5-|-7bp5--7bp5-|
D:---------------|------------|
A:---------------|------------|
E:---------------|------------|

:-----------------------------------------------------------------------------------------|
:--------15-17-16-14-16-14-16-17-16-14----14----------------------------------------------|
:-14-16b-------------------------------17----17-16-14-16-14-------------------------------|
:-----------------------------------------------------------17-14-16-14-------------------|
:-----------------------------------------------------------------------17-14-16-14----14-|
:-----------------------------------------------------------------------------------17----|

e:----------------------------------|
B:-----------------14-14------14----|
G:-----------------14-14------14----|
D:----------------------------------|
A:-16-17-16-14-17b--------17b-------|
E:----------------------------------|

e:------------------|
B:------------------|
G:------------------|
D:------------------|
A:-77777-1010101010-|
E:-55555-8-8-8-8-8--|

e:---------------------|
B:---------------------|
G:---------------------|
D:---------------------|
A:-1212121212-13-12-10-|
E:-1010101010-11-10-8--|

e:------------------|
B:------------------|
G:------------------|
D:------------------|
A:-77777-1010101010-|
E:-55555-8-8-8-8-8--|

e:---------------------|
B:---------------------|
G:---------------------|
D:---------------------|
A:-1212121212-13-12-10-|
E:-1010101010-11-10-8--|

:-------------------------------------------|
:-------------------------------------------|
:-------------------------------------------|
:-------------------------------------------|
:--10-10-10-10-10-10-121212121212--77777777-|
:--8--8--8--8--8--8--101010101010--55555555-|


e:----------------------------------|
B:----------------------------------|
G:----------------------------------|
D:----------------------------------|
A:-1212121212-10-10-10-10-10-777777-|
E:-1010101010-8--8--8--8--8--555555-|

:-------------------------------------------|
:-------------------------------------------|
:-------------------------------------------|
:-------------------------------------------|
:--10-10-10-10-10-10-121212121212--77777777-|
:--8--8--8--8--8--8--101010101010--55555555-|


e:----------------------------------|
B:----------------------------------|
G:----------------------------------|
D:---------------------------999999-|
A:-1212121212-10-10-10-10-10-777777-|
E:-1010101010-8--8--8--8--8---------|

e:-----------------------------|
B:--8b--5b-4b-3b--5b-4b-3b--1b-|
G:-10b--7b-6b-5b--7b-6b-5b--3b-|
D:-----------------------------|
A:-----------------------------|
E:-----------------------------|

e:------------------------|
B:------------------------|
G:-2----------------------|
D:-2----------------------|
A:-0----------------------|
E:------------------------|
            
Submit corrections

comments powered by Disqus
↑ Back to top | Zeke Tabs for West Seattle Acid Party. Lyrics for acoustic guitar and electric guitar. Tablatures and chords are parodies/interpretations of the original songs. You may use it for private study, scholarship, research or language learning purposes only