» » »

Zeke, Wanna Tabs (ver.1)

Artists:  A B C D E F G H I J K L M N O P Q R S T U V W X Y Z # 

Wanna Tabs (ver.1)

Zeke Tabs
 Rating:
4/5 (4 votes)
Wanna lessons Tabs too difficult? Try these video lessons and learn fast
                wanna ***


zeke






eb:-----------------------------------------------------------|
Bb:-----------------------------------------------------------|
Gb:-----------------------------------------------------------|
Db:-2-2-5-7-7-7-7--2-2-8-7-7-7-7--2-2-5-7-7-7-7-9-9-9-9-9-9-9-|
Ab:-0-0-3-5-5-5-5--0-0-6-5-5-5-5--0-0-3-5-5-5-5-7-7-7-7-7-7-7-|
Eb:-----------------------------------------------------------|

eb:-----------------------------------------------------------|
Bb:-----------------------------------------------------------|
Gb:-----------------------------------------------------------|
Db:-2-2-5-7-7-7-7--2-2-8-7-7-7-7--2-2-5-7-7-7-7-9-9-9-9-9-9-9-|
Ab:-0-0-3-5-5-5-5--0-0-6-5-5-5-5--0-0-3-5-5-5-5-7-7-7-7-7-7-7-|
Eb:-----------------------------------------------------------|

eb:-------|
Bb:-------|
Gb:-------|
Db:-8-7---|
Ab:-6-5---|
Eb:-------|

eb:-----------------------------------------------------------|
Bb:-----------------------------------------------------------|
Gb:-----------------------------------------------------------|
Db:-2-2-5-7-7-7-7--2-2-8-7-7-7-7--2-2-5-7-7-7-7-9-9-9-9-9-9-9-|
Ab:-0-0-3-5-5-5-5--0-0-6-5-5-5-5--0-0-3-5-5-5-5-7-7-7-7-7-7-7-|
Eb:-----------------------------------------------------------|


eb:-------------------------------------------------------------------|
Bb:-------------------------------------------------------------------|
Gb:-------------------------------------------------12-12-12-12-12-12-|
Db:-7-7-7-7-7-7-7-7-7-7-7--9-9-9-9-9-9-9-9-9-9-9-9--12-12-12-12-12-12-|
Ab:-5-5-5-5-5-5-5-5-5-5-5--7-7-7-7-7-7-7-7-7-7-7-7--10-10-10-10-10-10-|
Eb:-------------------------------------------------------------------|

eb:-----------------------------------------------|
Bb:-----------------------------------------------|
Gb:-----------------------------------------------|
Db:-2-2-5-7-7-7-7--2-2-8-7-7-7-7--2-2-5-7-7-7-7-9-|
Ab:-0-0-3-5-5-5-5--0-0-6-5-5-5-5--0-0-3-5-5-5-5-7-|
Eb:-----------------------------------------------|


:------------------------------------------|
:------------------------------------------|
:------------------------------------------|
:-2--8-7--2--5--2--8-7--2--5--2--8-7--2--5-|
:-0--6-5--0--3--0--6-5--0--3--0--6-5--0--3-|
:------------------------------------------|

eb:------------------------------|
Bb:------------------------------|
Gb:------------------------------|
Db:-7-13-12--5-10--7-13-12--5-10-|
Ab:-5-11-10--3-8---5-11-10--3-8--|
Eb:------------------------------|

eb:------------------------------------------|
Bb:------------------------------------------|
Gb:------------------------------------------|
Db:-9-9-9-9-9-9-9-9-9-9-9--12-12-12-12-12-12-|
Ab:-7-7-7-7-7-7-7-7-7-7-7--10-10-10-10-10-10-|
Eb:------------------------------------------|

solo
:------------------------------------------------------------------------------------------|
:------------------------------------------------------------------------------------------|
:------------------------------------------------------------------------------------------|
:-14~~~-14~~~-14~~~-14~~~-14~~~--14~~~--14~~~-14~~~--14~~~--14~~~-14~~~-14~~~--14~~~-14~~~-|
:------------------------------------------------------------------------------------------|
:------------------------------------------------------------------------------------------|

eb:---------------------------------------------------------|
Bb:-15b-15b-15b-15b-15b-15b---------------------------------|
Gb:---------------------------------------------------------|
Db:---------------------------------------------------------|
Ab:---------------------------------------------------------|
Eb:---------------------------------------------------------|

eb:-------------------------------------------------------------------|
Bb:-------------------------------------------------------------------|
Gb:-------------------------------------------------12-12-12-12-12-12-|
Db:-7-7-7-7-7-7-7-7-7-7-7--9-9-9-9-9-9-9-9-9-9-9-9--12-12-12-12-12-12-|
Ab:-5-5-5-5-5-5-5-5-5-5-5--7-7-7-7-7-7-7-7-7-7-7-7--10-10-10-10-10-10-|
Eb:-------------------------------------------------------------------|

eb:-----------------------------------------------------------|
Bb:-----------------------------------------------------------|
Gb:-----------------------------------------------------------|
Db:-2-2-5-7-7-7-7--2-2-8-7-7-7-7--2-2-5-7-7-7-7-9-9-9-9-9-9-9-|
Ab:-0-0-3-5-5-5-5--0-0-6-5-5-5-5--0-0-3-5-5-5-5-7-7-7-7-7-7-7-|
Eb:-----------------------------------------------------------|

eb:-------|
Bb:-------|
Gb:-------|
Db:-8-7---|
Ab:-6-5---|
Eb:-------|

eb:-----------------------------------------------------------|
Bb:-----------------------------------------------------------|
Gb:-----------------------------------------------------------|
Db:-2-2-5-7-7-7-7--2-2-8-7-7-7-7--2-2-5-7-7-7-7-9-9-9-9-9-9-9-|
Ab:-0-0-3-5-5-5-5--0-0-6-5-5-5-5--0-0-3-5-5-5-5-7-7-7-7-7-7-7-|
Eb:-----------------------------------------------------------|

:--------------------------------------------------------|
:--------------------------------------------------------|
:--------------------------------------------------------|
:-9-9-9-9-9-9-9-9-9-9-9-9-9-9-9-9--12-12-12-12-12-12-12--|
:-7-7-7-7-7-7-7-7-7-7-7-7-7-7-7-7--10-10-10-10-10-10-10--|
:--------------------------------------------------------|

eb:---------------------------------------------------------|
Bb:---------------------------------------------------------|
Gb:-14/-----------------------------------------------------|
Db:-14/-----------------------------------------------------|
Ab:-12/-----------------------------------------------------|
Eb:---------------------------------------------------------|
            
Submit corrections

comments powered by Disqus
↑ Back to top | Zeke Tabs for Wanna. Lyrics for acoustic guitar and electric guitar. Tablatures and chords are parodies/interpretations of the original songs. You may use it for private study, scholarship, research or language learning purposes only