>
 >
Twisted

Twisted Guitar Tabs

Zeke - Twisted chords, tabs, tablatures, lyrics

Guitar lessons | Add/correct | Request | Top 50 tabs Artists:  A B C D E F G H I J K L M N O P Q R S T U V W X Y Z 0-9

Twisted Guitar Tabs – Zeke

CD, Sheet music, Poster

Do you like Twisted? Share with your friends now
Bass TabsBass Tabs v2Tabs
twisted


zeke






eb:----------------------------------------------------------------------|
Bb:----------------------------------------------------------------------|
Gb:-14-14-14-14-14-14-14-14-14-14-14-14-14-14-14-14-14-14-14-14-14-14-14-|
Db:-13-13-13-13-13-13-13-13-13-13-13-13-13-13-13-13-13-13-13-13-13-13-13-|
Ab:-12-12-12-12-12-12-12-12-12-12-12-12-12-12-12-12-12-12-12-12-12-12-12-|
Eb:----------------------------------------------------------------------|

eb:----------------------------------|
Bb:----------------------------------|
Gb:----------------------------------|
Db:-2-2---8-7-7-7-7-7--2-2---5-7-7-7-|
Ab:-0-0-0-6-5-5-5-5-5--0-0-0-3-5-5-5-|
Eb:----------------------------------|

eb:------------------------------------|
Bb:------------------------------------|
Gb:------------------------------------|
Db:-2-2---8-7-7-7-7-7------------------|
Ab:-0-0-0-6-5-5-5-5-5--3-3-4-4-5-5-----|
Eb:--------------------------------3-3-|

verse
twisted on my 69...
eb:----------------------------|
Bb:----------------------------|
Gb:----------------------------|
Db:-2-2-2-2-2-2-2-2-2--5---6-7-|
Ab:-0-0-0-0-0-0-0-0-0--3-0-4-5-|
Eb:----------------------------|

eb:------------------------------------|
Bb:------------------------------------|
Gb:------------------------------------|
Db:-2-2-2-2-2-2-2-2-2----5-5-5-5-5-5-5-|
Ab:-0-0-0-0-0-0-0-0-0--0-3-3-3-3-3-3-3-|
Eb:------------------------------------|

:------------------------|
:------------------------|
:------------------------|
:-2-2--2-2--2-2----------|
:-0-0--0-0--0-0----------|
:---------------5-3-4-5--|


eb:---------------------------------------------|
Bb:---------------------------------------------|
Gb:---------------------------------------------|
Db:-9-9-9-9-9-9-9-9-9--5-5-5-5-5-5-5--7-7-7-7-7-|
Ab:-7-7-7-7-7-7-7-7-7--3-3-3-3-3-3-3--5-5-5-5-5-|
Eb:---------------------------------------------|

eb:---------------------------------------------|
Bb:---------------------------------------------|
Gb:---------------------------------------------|
Db:-9-9-9-9-9-9-9-9-9--5-5-5-5-5-5-5--7-7-7-7-7-|
Ab:-7-7-7-7-7-7-7-7-7--3-3-3-3-3-3-3--5-5-5-5-5-|
Eb:---------------------------------------------|

eb:---------------------------------------------|
Bb:---------------------------------------------|
Gb:---------------------------------------------|
Db:-9-9-9-9-9-9-9-9-9--5-5-5-5-5-5-5--7-7-7-7-7-|
Ab:-7-7-7-7-7-7-7-7-7--3-3-3-3-3-3-3--5-5-5-5-5-|
Eb:---------------------------------------------|

eb:---------------------------------------|
Bb:---------------------------------------|
Gb:---------------------------------------|
Db:-9-9-9-9-9-9-9-9-9-9-9-9-9-9-9-9-9-9-9-|
Ab:-7-7-7-7-7-7-7-7-7-7-7-7-7-7-7-7-7-7-7-|
Eb:---------------------------------------|

eb:----------------------------------|
Bb:----------------------------------|
Gb:----------------------------------|
Db:-2-2---8-7-7-7-7-7--2-2---5-7-7-7-|
Ab:-0-0-0-6-5-5-5-5-5--0-0-0-3-5-5-5-|
Eb:----------------------------------|

eb:------------------------------------|
Bb:------------------------------------|
Gb:------------------------------------|
Db:-2-2---8-7-7-7-7-7------------------|
Ab:-0-0-0-6-5-5-5-5-5--3-3-4-4-5-5-----|
Eb:--------------------------------3-3-|

eb:----------------------------------|
Bb:----------------------------------|
Gb:----------------------------------|
Db:-2-2---8-7-7-7-7-7--2-2---5-7-7-7-|
Ab:-0-0-0-6-5-5-5-5-5--0-0-0-3-5-5-5-|
Eb:----------------------------------|

eb:------------------------------------|
Bb:------------------------------------|
Gb:------------------------------------|
Db:-2-2---8-7-7-7-7-7------------------|
Ab:-0-0-0-6-5-5-5-5-5--3-3-4-4-5-5-----|
Eb:--------------------------------3-3-|

verse
twisted on my 69...
eb:----------------------------|
Bb:----------------------------|
Gb:----------------------------|
Db:-2-2-2-2-2-2-2-2-2--5---6-7-|
Ab:-0-0-0-0-0-0-0-0-0--3-0-4-5-|
Eb:----------------------------|

eb:------------------------------------|
Bb:------------------------------------|
Gb:------------------------------------|
Db:-2-2-2-2-2-2-2-2-2----5-5-5-5-5-5-5-|
Ab:-0-0-0-0-0-0-0-0-0--0-3-3-3-3-3-3-3-|
Eb:------------------------------------|

:---------------------|
:---------------------|
:---------------------|
:-2-2--2-2--2-2--2-2--|
:-0-0--0-0--0-0--0-0--|
:---------------------|

eb:----------------------------------------------------------------------|
Bb:----------------------------------------------------------------------|
Gb:-14-14-14-14-14-14-14-14-14-14-14-14-14-14-14-14-14-14-14-14-14-14-14-|
Db:-13-13-13-13-13-13-13-13-13-13-13-13-13-13-13-13-13-13-13-13-13-13-13-|
Ab:-12-12-12-12-12-12-12-12-12-12-12-12-12-12-12-12-12-12-12-12-12-12-12-|
Eb:----------------------------------------------------------------------|


eb:------------------------|
Bb:------------------------|
Gb:------------------------|
Db:-7----------------------|
Ab:-5----------------------|
Eb:------------------------|


:---------------------------------------------|
:---------------------------------------------|
:------14-14---------------14-14--------------|
:------13-13---------------13-13--7--7-7--7-7-|
:-7-7--12-12----------7-7--12-12--5--5-5--5-5-|
:-5-5----------14/----5-5---------------------|

eb:---------------------------------------------------------|
Bb:---------------------------------------------------------|
Gb:---------------------------------------------------------|
Db:-7-7-7-7-7-7-7-7-7-7-7-7---------------------------------|
Ab:-5-5-5-5-5-5-5-5-5-5-5-5---7-----10-7-5-7----------------|
Eb:---------------------------5-----8--5-3-5----------------|





Comments


Popular Zeke tabs & chords
Arkansas Man Tabs
Chiva Knievel Tabs
Daytime Dilemma Dangers Of Love Tabs
Galaxy 500 Tabs
Holley 750 Tabs
I Believe In Miracles Tabs
I´Ll Be Your Sister Tabs
Liar Tabs
Mountain Man Tabs
Rodney Tabs


Song lyrics



↑ Back to top | Tablatures and chords are parodies/interpretations of the original songs. You may use it for private study, scholarship, research or language learning purposes only
© 2014 AZChords.com Contact us | Privacy policy | DMCA | Add/correct tabs | Request tabs | Top 50 tabs