» » »

Zeke, Telepath Boy Tabs (ver.2)

Artists:  A B C D E F G H I J K L M N O P Q R S T U V W X Y Z # 

Telepath Boy Tabs (ver.2)

Zeke Tabs
 Rating:
4/5 (4 votes)
Telepath Boy lessons Tabs too difficult? Try these video lessons and learn fast
                telepath boy



zeke









eb:-----------------------------------|
Bb:-----------------------------------|
Gb:-----------------------------------|
Db:-4-4-4-4-4-4-4-4-4-4-4-4-4--7-9-7--|
Ab:-2-2-2-2-2-2-2-2-2-2-2-2-2--5-7-5--|
Eb:-----------------------------------|

eb:------------------------------------|
Bb:------------------------------------|
Gb:------------------------------------|
Db:-4-4-4-4-4-4-4-4-4-4-4-4-4--2-2-2-2-|
Ab:-2-2-2-2-2-2-2-2-2-2-2-2-2--0-0-0-0-|
Eb:------------------------------------|

eb:----------------------------|
Bb:----------------------------|
Gb:----------------------------|
Db:-4-4-4-4-4-4-4-4-4--9-9-7-7-|
Ab:-2-2-2-2-2-2-2-2-2--7-7-5-5-|
Eb:----------------------------|

eb:---------------------|
Bb:---------------------|
Gb:---------------------|
Db:---------------------|
Ab:-5-5-5-5-5-5-5-5-5-5-|
Eb:-3-3-3-3-3-3-3-3-3-3-|

eb:-----------------------------------|
Bb:-----------------------------------|
Gb:-----------------------------------|
Db:-4-4-4-4-4-4-4-4-4-4-4-4-4--7-9-7--|
Ab:-2-2-2-2-2-2-2-2-2-2-2-2-2--5-7-5--|
Eb:-----------------------------------|

eb:------------------------------------|
Bb:------------------------------------|
Gb:------------------------------------|
Db:-4-4-4-4-4-4-4-4-4-4-4-4-4--2-2-2-2-|
Ab:-2-2-2-2-2-2-2-2-2-2-2-2-2--0-0-0-0-|
Eb:------------------------------------|

eb:----------------------------|
Bb:----------------------------|
Gb:----------------------------|
Db:-4-4-4-4-4-4-4-4-4--9-9-7-7-|
Ab:-2-2-2-2-2-2-2-2-2--7-7-5-5-|
Eb:----------------------------|

eb:---------------------|
Bb:---------------------|
Gb:---------------------|
Db:---------------------|
Ab:-5-5-5-5-5-5-5-5-5-5-|
Eb:-3-3-3-3-3-3-3-3-3-3-|

eb:-----------------------------------|
Bb:-----------------------------------|
Gb:-----------------------------------|
Db:-4-4-4-4-4-4-4-4-4-4-4-4-4--7-9-7--|
Ab:-2-2-2-2-2-2-2-2-2-2-2-2-2--5-7-5--|
Eb:-----------------------------------|

eb:---------------------|
Bb:---------------------|
Gb:---------------------|
Db:-7-7-7-7-7-7-7-10-12-|
Ab:-5-5-5-5-5-5-5-8--10-|
Eb:---------------------|

eb:-------------------------|
Bb:-------------------------|
Gb:-------------------------|
Db:-7-7-7-7-7-7-7-9-9-9-9-9-|
Ab:-5-5-5-5-5-5-5-7-7-7-7-7-|
Eb:-------------------------|

eb:---------------------------------|
Bb:---------------------------------|
Gb:---------------------------------|
Db:-4-4-4-4-4-4-4-4-4-4-4-4-4--7-9--|
Ab:-2-2-2-2-2-2-2-2-2-2-2-2-2--5-7--|
Eb:---------------------------------|

eb:-----------------------------|
Bb:-----------------------------|
Gb:-----------------------------|
Db:-4-4-4-4-4-4-4-4--4-4-4-4-4--|
Ab:-2-2-2-2-2-2-2-2--2-2-2-2-2--|
Eb:-----------------------------|
            
Submit corrections

comments powered by Disqus
↑ Back to top | Zeke Tabs for Telepath Boy. Lyrics for acoustic guitar and electric guitar. Tablatures and chords are parodies/interpretations of the original songs. You may use it for private study, scholarship, research or language learning purposes only