>
 >
T-500

T-500 Guitar Tabs

Zeke - T-500 chords, tabs, tablatures, lyrics

Guitar lessons | Add/correct | Request | Top 50 tabs Artists:  A B C D E F G H I J K L M N O P Q R S T U V W X Y Z 0-9

T-500 Guitar Tabs – Zeke

CD, Sheet music, Poster

Do you like T-500? Share with your friends now
Tabs
t-500


zeke






e:--------------------------|
B:--------------------------|
G:--------------------------|
D:-2-2-2-2-2-2-2-2-2-2--5-7-|
A:-0-0-0-0-0-0-0-0-0-0--3-5-|
E:--------------------------|

e:--------------------------|
B:--------------------------|
G:--------------------------|
D:-2-2-2-2-2-2-2-2-2-2--8-7-|
A:-0-0-0-0-0-0-0-0-0-0--6-5-|
E:--------------------------|

e:---------------------|
B:---------------------|
G:---------------------|
D:-2-2--5-5--2-2--7-7--|
A:-0-0--3-3--0-0--5-5--|
E:---------------------|

e:---------------------|
B:---------------------|
G:---------------------|
D:-2-2--5-5--2-2--8-8--|
A:-0-0--3-3--0-0--6-6--|
E:---------------------|

e:---------------------|
B:---------------------|
G:---------------------|
D:-2-2--5-5--2-2--7-7--|
A:-0-0--3-3--0-0--5-5--|
E:---------------------|

e:---------------------|
B:---------------------|
G:---------------------|
D:-2-2--5-5--2-2--8-8--|
A:-0-0--3-3--0-0--6-6--|
E:---------------------|

e:--------------------------|
B:--------------------------|
G:--------------------------|
D:-2-2-2-2-2-2-2-2-2-2--5-7-|
A:-0-0-0-0-0-0-0-0-0-0--3-5-|
E:--------------------------|

e:----------------------------|
B:----------------------------|
G:----------------------------|
D:-2-2-2-2-2-2-2-2-2-2--8-7-5-|
A:-0-0-0-0-0-0-0-0-0-0--6-5-3-|
E:----------------------------|

:-----------------------------------------------------------|
:-----------------------------------------------------------|
:-----------------------------------------------------------|
:----------------------------------------------------9-8-7--|
:-7-7-7-7-7--12/--7-7-7-7-7--12/--7-7-7-7-7--12/--7--7-6-5--|
:-5-5-5-5-5--10/--5-5-5-5-5--10/--5-5-5-5-5--10/--5---------|

:-------------------------------------------------|
:-------------------------------------------------|
:-------------------------------------------------|
:------------------------------------9-8-7--5-4-3-|
:-7-7-7-7-7--12/--7-7-7-7-7--12/--7--7-6-5--3-2-1-|
:-5-5-5-5-5--10/--5-5-5-5-5--10/--5---------------|


:---------------------------------|
:---------------------------------|
:---------------------------------|
:-2-2-2--7-7--5-5-----------------|
:-0-0-0--5-5--3-3--5-5-5--7--5--3-|
:------------------3-3-3--5--3--1-|

e:-0--|
B:-0--|
G:-1--|
D:-2--|
A:-2--|
E:-0--|

e:-------------------------------------------------|
B:-------------------------------------------------|
G:-------------------------------------------------|
D:-7-9-9-9-9-9-7-9-9-9-9-9-7-9-9-9-9-9-7-9-9-9-9-9-|
A:-5-7-7-7-7-7-5-7-7-7-7-7-5-7-7-7-7-7-5-7-7-7-7-7-|
E:-------------------------------------------------|

e:--------------------------|
B:--------------------------|
G:--------------------------|
D:-2-2-2-2-2-2-2-2-2-2--8-7-|
A:-0-0-0-0-0-0-0-0-0-0--6-5-|
E:--------------------------|

e:-----------------------------------|
B:-----------------------------------|
G:-----------------------------------|
D:-2-2-2-2-2-2-2-2-2-2--9-8-7--5-4-3-|
A:-0-0-0-0-0-0-0-0-0-0--7-6-5--3-2-1-|
E:-----------------------------------|

e:----|
B:----|
G:-2--|
D:-2--|
A:-0--|
E:----|





Comments


Popular Zeke tabs & chords
Revolution Reprise Bass Tabs
Twisted Bass Tabs
Arkansas Man Tabs
Daytime Dilemma 1 Tabs
Love Gun Tabs
Mystery Train Tabs
Razorblade Tabs
Shout It Out Loud Tabs
Slut Tabs
West Seattle Acid Party Tabs


Song lyrics



↑ Back to top | Tablatures and chords are parodies/interpretations of the original songs. You may use it for private study, scholarship, research or language learning purposes only
© 2014 AZChords.com Contact us | Privacy policy | DMCA | Add/correct tabs | Request tabs | Top 50 tabs