» » »

Zeke, Spoonful Of Soul Tabs (ver.1)

Artists:  A B C D E F G H I J K L M N O P Q R S T U V W X Y Z # 

Spoonful Of Soul Tabs (ver.1)

Zeke Tabs
Rating:
0/5 (0 votes)
Spoonful Of Soul lessons Tabs too difficult? Try these video lessons and learn fast
                spoonful of soul


zeke






eb:------------|
Bb:------------|
Gb:------------|
Db:---------4--|
Ab:-7---2---2--|
Eb:-5---0------|


eb:-----------------------------------------------|
Bb:-----------------------------------------------|
Gb:-----------------------------------------------|
Db:-----------------------------------------------|
Ab:-4-4-4-4-4-4-4-4-4-4-4-4--7-7-7-7-7--9-9-9-9-9-|
Eb:-2-2-2-2-2-2-2-2-2-2-2-2--5-5-5-5-5--7-7-7-7-7-|


eb:--------------------------------------|
Bb:--------------------------------------|
Gb:--------------------------------------|
Db:--------------------------------------|
Ab:-7---------9--------4-4-4-4-4-4-4-4-4-|
Eb:-5---------7--------2-2-2-2-2-2-2-2-2-|


eb:------------|
Bb:------------|
Gb:------------|
Db:---------4--|
Ab:-7---2---2--|
Eb:-5---0------|


eb:-----------------------------------------------|
Bb:-----------------------------------------------|
Gb:-----------------------------------------------|
Db:-----------------------------------------------|
Ab:-4-4-4-4-4-4-4-4-4-4-4-4--7-7-7-7-7--9-9-9-9-9-|
Eb:-2-2-2-2-2-2-2-2-2-2-2-2--5-5-5-5-5--7-7-7-7-7-|


eb:--------------------------------------|
Bb:--------------------------------------|
Gb:--------------------------------------|
Db:--------------------------------------|
Ab:-7---------9--------4-4-4-4-4-4-4-4-4-|
Eb:-5---------7--------2-2-2-2-2-2-2-2-2-|


eb:------------|
Bb:------------|
Gb:------------|
Db:---------4--|
Ab:-7---2---2--|
Eb:-5---0------|

:---------------------------------------------------------------|
:---------------------------------------------------------------|
:---------------------------------------------------------------|
:---------------------------------------------------------------|
:--4-4-4-4-4-4-4-4-4--7-7-7-7-7-7-7-7-7--9-9-9-9-9--7-7-7-7-7-7-|
:--2-2-2-2-2-2-2-2-2--5-5-5-5-5-5-5-5-5--7-7-7-7-7--5-5-5-5-5-5-|

solo
eb:----2----2----2----2----2----2----2----2---------|
Bb:----2----2----2----2----2----2----2----2---------|
Gb:-4b---4b---4b---4b---4b---4b---4b---4b---4b~~~---|
Db:-------------------------------------------------|
Ab:-------------------------------------------------|
Eb:-------------------------------------------------|

eb:------------|
Bb:------------|
Gb:------------|
Db:---------4--|
Ab:-7---2---2--|
Eb:-5---0------|

eb:------------------------|
Bb:------------------------|
Gb:------------------------|
Db:------------------------|
Ab:-4----------------------|
Eb:-2----------------------|
            
Submit corrections

comments powered by Disqus
↑ Back to top | Zeke Tabs for Spoonful Of Soul. Lyrics for acoustic guitar and electric guitar. Tablatures and chords are parodies/interpretations of the original songs. You may use it for private study, scholarship, research or language learning purposes only