» » »

Zeke, Shout It Out Loud Tabs (ver.1)

Artists:  A B C D E F G H I J K L M N O P Q R S T U V W X Y Z # 

Shout It Out Loud Tabs (ver.1)

Zeke Tabs
Rating:
0/5 (0 votes)
Shout It Out Loud lessons Tabs too difficult? Try these video lessons and learn fast
                shout it out loud


zeke






|------------------------|
|-4-5-4-5--4-5-4--2------|
|-4-4-4-4--4-4-4--2------|
|-4-6-4-6--4-6-4--2------|
|-----------------0------|
|------------------------|


Eb|-----------------------------------------------------------------------------------|
Bb|-----------------------------------------------------------------------------------|
Gb|--4--4-4-4-4-4-4-4--7--2-2-2-2--7--2-2-2-2--4-4-4-4-4-4-4--7--2-2-2-2--7--2-2-2-2--|
Db|--4--4-4-4-4-4-4-4--7--2-2-2-2--7--2-2-2-2--4-4-4-4-4-4-4--7--2-2-2-2--7--2-2-2-2--|
Ab|--2--2-2-2-2-2-2-2--5--0-0-0-0--5--0-0-0-0--2-2-2-2-2-2-2--5--0-0-0-0--5--0-0-0-0--|
Eb|-----------------------------------------------------------------------------------|


|----------------------------------------------------|
|----------------------------------------------------|
|----------------------------------------------------|
|-7-7-9--7-9-7--7-9-7-9--2-2-4--2-2-4-2--------------|
|-5-5-5--5-5-5--5-5-5-5--0-0-0--0-0-0-0--2-2-4---2-4-|
|----------------------------------------0-0-0--4----|


|--------------------------------------|
|--------------------------------------|
|------------------------------------4-|
|-7-7-9--7-9-7--7-9-7-9--2-2-4--2-4--4-|
|-5-5-5--5-5-5--5-5-5-5--0-0-0--0-0--2-|
|--------------------------------------|


Eb|--------------------|
Bb|--------------------|
Gb|-4--4--4--4--4--4-2-|
Db|-4--2--4--2--4--2-2-|
Ab|-2-----2-----2----0-|
Eb|--------------------|


Eb|-----------------------------------------------------------------------------------|
Bb|-----------------------------------------------------------------------------------|
Gb|--4--4-4-4-4-4-4-4--7--2-2-2-2--7--2-2-2-2--4-4-4-4-4-4-4--7--2-2-2-2--7--2-2-2-2--|
Db|--4--4-4-4-4-4-4-4--7--2-2-2-2--7--2-2-2-2--4-4-4-4-4-4-4--7--2-2-2-2--7--2-2-2-2--|
Ab|--2--2-2-2-2-2-2-2--5--0-0-0-0--5--0-0-0-0--2-2-2-2-2-2-2--5--0-0-0-0--5--0-0-0-0--|
Eb|-----------------------------------------------------------------------------------|


|----------------------------------------------------|
|----------------------------------------------------|
|----------------------------------------------------|
|-7-7-9--7-9-7--7-9-7-9--2-2-4--2-2-4-2--------------|
|-5-5-5--5-5-5--5-5-5-5--0-0-0--0-0-0-0--2-2-4---2-4-|
|----------------------------------------0-0-0--4----|


|--------------------------------------|
|--------------------------------------|
|------------------------------------4-|
|-7-7-9--7-9-7--7-9-7-9--2-2-4--2-4--4-|
|-5-5-5--5-5-5--5-5-5-5--0-0-0--0-0--2-|
|--------------------------------------|


Eb|--------------------|
Bb|--------------------|
Gb|-4--4--4--4--4--4-2-|
Db|-4--2--4--2--4--2-2-|
Ab|-2-----2-----2----0-|
Eb|--------------------|


Solo
|--------------------------------------------------------|
|-15----15--15--15--15--15---15b-r15----14---------------|
|-17b~~-17b-17b-17b-17b-17b----------14----14------------|
|----------------------------------------------14~~~~~~/-|
|--------------------------------------------------------|
|--------------------------------------------------------|

|---------------------------|
|-15----15--15--15--15--15--|
|-17b~~-17b-17b-17b-17b-17b-|
|---------------------------|
|---------------------------|
|---------------------------|

|----------------------------------------------------------|
|--15b-r15----14------------14-14h16p14----14h16p14----14/-|
|----------14----14-----16~-------------15----------15-----|
|--------------------16~-----------------------------------|
|----------------------------------------------------------|
|----------------------------------------------------------|


Eb|----------------------|
Bb|----------------------|
Gb|2---4--4--4--4--4--4--|
Db|2---4--2--4--2--4--2--|
Ab|0---2-----2-----2-----|
Eb|----------------------|

                           fdbk
|-----------------------------------|
|-----------------------------------|
|2--2-------------------------------|
|2--2-------------------------------|
|0--0--------/12~~~~----------------|
|-----------------------------------|
            

comments powered by Disqus
↑ Back to top | Zeke Tabs for Shout It Out Loud. Lyrics for acoustic guitar and electric guitar. Tablatures and chords are parodies/interpretations of the original songs. You may use it for private study, scholarship, research or language learning purposes only