» » »

Zeke, Season Of The Witch Tabs (ver.1)

Artists:  A B C D E F G H I J K L M N O P Q R S T U V W X Y Z # 

Season Of The Witch Tabs (ver.1)

Zeke Tabs
Rating:
0/5 (0 votes)
Hard to play? Try these video lessons and learn fast.
                

tune 2 steps down
       
                 
Eb|-------------|
Bb|-------------|
F#|-------------|
C#|-------------|
G#|-7/----------|
C#|-5/----------|

Eb|--------------------------------------------------------|
Bb|--------------------------------------------------------|
F#|--------------------------------------------------------|
C#|-5-3-5--3-5-3--5-3-5--3-5-3--5-3-5--3-5-3--5-3-5--3-5-3-|
G#|-5-3-5--3-5-3--5-3-5--3-5-3--5-3-5--3-5-3--5-3-5--3-5-3-|
C#|-0---0----0----0---0----0----0---0----0----0---0----0---|


Eb|--------------------------------------------------------|
Bb|--------------------------------------------------------|
F#|--------------------------------------------------------|
C#|-7-5-7--5-7-5--7-5-7--5-7-5--7-5-7--5-7-5--7-5-7--5-7-5-|
G#|-5-3-5--3-5-3--5-3-5--3-5-3--5-3-5--3-5-3--5-3-5--3-5-3-|
C#|--------------------------------------------------------|

verse
Eb|--------------------------------------------------------|
Bb|--------------------------------------------------------|
F#|--------------------------------------------------------|
C#|-7-5-7--5-7-5--7-5-7--5-7-5--7-5-7--5-7-5--7-5-7--5-7-5-|
G#|-5-3-5--3-5-3--5-3-5--3-5-3--5-3-5--3-5-3--5-3-5--3-5-3-|
C#|--------------------------------------------------------|

Eb|-------------------------|
Bb|-------------------------|
F#|-------------------------|
C#|-7-7--5-5--3-3-3-3-3-3-3-|
G#|-5-5--3-3--1-1-1-1-1-1-1-|
C#|-------------------------|

Eb|---------------------------|
Bb|---------------------------|
F#|---------------------------|
C#|-7-7--10-10--3-3-3-3-3-3-3-|
G#|-5-5--8--8---1-1-1-1-1-1-1-|
C#|---------------------------|

Eb|-------------------------|
Bb|-------------------------|
F#|-------------------------|
C#|-7-7--5-5--3-3-3-3-3-3-3-|
G#|-5-5--3-3--1-1-1-1-1-1-1-|
C#|-------------------------|

Eb|---------------------------|
Bb|---------------------------|
F#|---------------------------|
C#|-7-7--10-10--3-3-3-3-3-3-3-|
G#|-5-5--8--8---1-1-1-1-1-1-1-|
C#|---------------------------|


Eb|----------------------------------------------------17b~~~~~-|
Bb|-----------------------9b~~~~-----------------------20b~~~~~-|
F#|----------------------11b~~~~--------------------------------|
C#|-7-5-7--5-7-5--7-5-7-----------7-5-7--5-7-5--7-5-7-----------|
G#|-5-3-5--3-5-3--5-3-5-----------5-3-5--3-5-3--5-3-5-----------|
C#|-------------------------------------------------------------|

Eb|---------------------------------------------------------------------|
Bb|---------------------------------------------------------------------|
F#|---------------------------------------------------------------------|
C#|------5-3h5p3---------5-3h5p3---------5-3h5p3----------5-3h5p3-------|
G#|-5-3----------5-3-5-3---------5-3-5-3----------5-3-5-3---------5-3-5-|
C#|---------------------------------------------------------------------|

solo
Eb|-10b~~~~-10b~~~~-10b~~~~-10b~~~~-10b~~~~-10b~~~~----------------------------------------|
Bb|-13b~~~~-13b~~~~-13b~~~~-13b~~~~-13b~~~~-13b~~~~--13-15-13-15--10-13-10-13-10-----------|
F#|------------------------------------------------------------------------------12-1012-10|
C#|----------------------------------------------------------------------------------------|
G#|----------------------------------------------------------------------------------------|
C#|----------------------------------------------------------------------------------------|

Eb|--------------------------------------------15-17-16-15h16p15-------------15-17-16-15h16|
Bb|----------------------------------------18b-------------------18-15-16-18---------------|
F#|-12-10----------------------------------------------------------------------------------|
C#|-------12-10-12-10-12-10----10-12-12~~--------------------------------------------------|
G#|-------------------------12-------------------------------------------------------------|
C#|----------------------------------------------------------------------------------------|

Eb|p15-----------------------------------------------15-----15---------|
Bb|----18-15-16-18-16-15-------------------------18b----18b----18bf~~~-|
F#|----------------------18-15-17-18-17-15-----------------------------|
C#|----------------------------------------17-15-----------------------|
G#|--------------------------------------------------------------------|
C#|--------------------------------------------------------------------|

Eb|--------------------------------------------------------|
Bb|--------------------------------------------------------|
F#|--------------------------------------------------------|
C#|-5-3-5--3-5-3--5-3-5--3-5-3--5-3-5--3-5-3--5-3-5--3-5-3-|
G#|-5-3-5--3-5-3--5-3-5--3-5-3--5-3-5--3-5-3--5-3-5--3-5-3-|
C#|-0---0----0----0---0----0----0---0----0----0---0----0---|


Eb|--------------------------------------------------------|
Bb|--------------------------------------------------------|
F#|--------------------------------------------------------|
C#|-7-5-7--5-7-5--7-5-7--5-7-5--7-5-7--5-7-5--7-5-7--5-7-5-|
G#|-5-3-5--3-5-3--5-3-5--3-5-3--5-3-5--3-5-3--5-3-5--3-5-3-|
C#|--------------------------------------------------------|

verse
Eb|--------------------------------------------------------|
Bb|--------------------------------------------------------|
F#|--------------------------------------------------------|
C#|-7-5-7--5-7-5--7-5-7--5-7-5--7-5-7--5-7-5--7-5-7--5-7-5-|
G#|-5-3-5--3-5-3--5-3-5--3-5-3--5-3-5--3-5-3--5-3-5--3-5-3-|
C#|--------------------------------------------------------|

Eb|-------------------------|
Bb|-------------------------|
F#|-------------------------|
C#|-7-7--5-5--3-3-3-3-3-3-3-|
G#|-5-5--3-3--1-1-1-1-1-1-1-|
C#|-------------------------|

Eb|---------------------------|
Bb|---------------------------|
F#|---------------------------|
C#|-7-7--10-10--3-3-3-3-3-3-3-|
G#|-5-5--8--8---1-1-1-1-1-1-1-|
C#|---------------------------|

Eb|-------------------------|
Bb|-------------------------|
F#|-------------------------|
C#|-7-7--5-5--3-3-3-3-3-3-3-|
G#|-5-5--3-3--1-1-1-1-1-1-1-|
C#|-------------------------|

Eb|---------------------------|
Bb|---------------------------|
F#|---------------------------|
C#|-7-7--10-10--3-3-3-3-3-3-3-|
G#|-5-5--8--8---1-1-1-1-1-1-1-|
C#|---------------------------|

Eb|----------------------------------------------------17b~~~~~-|
Bb|-----------------------9b~~~~-----------------------20b~~~~~-|
F#|----------------------11b~~~~--------------------------------|
C#|-7-5-7--5-7-5--7-5-7-----------7-5-7--5-7-5--7-5-7-----------|
G#|-5-3-5--3-5-3--5-3-5-----------5-3-5--3-5-3--5-3-5-----------|
C#|-0---0----0----0---0-----------0---0----0----0---0-----------|

Eb|---------------------------------------------------------------------|
Bb|---------------------------------------------------------------------|
F#|---------------------------------------------------------------------|
C#|------5-3h5p3---------5-3h5p3---------5-3h5p3----------5-3h5p3-7-5-3-|
G#|-5-3----------5-3-5-3---------5-3-5-3----------5-3-5-3---------5-3-5-|
C#|---------------------------------------------------------------------|
            

comments powered by Disqus
↑ Back to top | Zeke Tabs for Season Of The Witch. Lyrics for acoustic guitar and electric guitar. Tablatures and chords are parodies/interpretations of the original songs. You may use it for private study, scholarship, research or language learning purposes only