» » »

Zeke, Schmidt Value Pack Tabs (ver.1)

Artists:  A B C D E F G H I J K L M N O P Q R S T U V W X Y Z # 

Schmidt Value Pack Tabs (ver.1)

Zeke Tabs
Rating:
0/5 (0 votes)
Hard to play? Try these video lessons and learn fast.
                schmidt value pack


zeke






       repeat
    schmidt value pack
eb:-----------------------|
Bb:-----------------------|
Gb:-----------------------|
Db:----9------9-----9---9-|
Ab:----7------7-----7---7-|
Eb:----0------0-----0---0-|


  everyones favorite                 
:-------------------------|
:-------------------------|
:-------------------------|
:-------------------------|
:--7-7--5-5---------------|
:--5-5--3-3---------------|

       repeat
    schmidt value pack
eb:-----------------------|
Bb:-----------------------|
Gb:-----------------------|
Db:----9------9-----9---9-|
Ab:----7------7-----7---7-|
Eb:----0------0-----0---0-|


  everyones favorite                 
:-------------------------|
:-------------------------|
:-------------------------|
:-------------------------|
:--7-7--5-5---------------|
:--5-5--3-3---------------|


  yeah i'm drunk
:---------------------------------|
:---------------------------------|
:---------------------------------|
:---------------------9-9--8-7-6--|
:-7---5---2-----7--5--7-7--6-5-4--|
:-5---3---0-----5--3--0-0--0-0-0--|


:---------------------------------|
:---------------------------------|
:---------------------------------|
:---------------------------------|
:-7---5---2----7---5--7-5--2------|
:-5---3---0----5---3--5-3--0------|


       repeat
    schmidt value pack
eb:-----------------------|
Bb:-----------------------|
Gb:-----------------------|
Db:----9------9-----9---9-|
Ab:----7------7-----7---7-|
Eb:----0------0-----0---0-|


  everyones favorite                 
:-------------------------|
:-------------------------|
:-------------------------|
:-------------------------|
:--7-7--5-5---------------|
:--5-5--3-3---------------|

       repeat
    schmidt value pack
eb:-----------------------|
Bb:-----------------------|
Gb:-----------------------|
Db:----9------9-----9---9-|
Ab:----7------7-----7---7-|
Eb:----0------0-----0---0-|


  everyones favorite                 
:-------------------------|
:-------------------------|
:-------------------------|
:-------------------------|
:--7-7--5-5---------------|
:--5-5--3-3---------------|


  yeah i'm drunk
:---------------------------------|
:---------------------------------|
:---------------------------------|
:---------------------9-9--8-7-6--|
:-7---5---2-----7--5--7-7--6-5-4--|
:-5---3---0-----5--3--0-0--0-0-0--|


:---------------------------------|
:---------------------------------|
:---------------------------------|
:---------------------------------|
:-7---5---2----7---5--7-5--2------|
:-5---3---0----5---3--5-3--0------|                                   

solo    
:-----12-----12------12-----12-----12-----12-----12----------12----------------------------|
:-15b----15b----15b-----15b----15b----15b----15b----15b~~~~------15p12-15p12---------------|
:----------------------------------------------------------------------------15-14-12-14-12|
:------------------------------------------------------------------------------------------|
:------------------------------------------------------------------------------------------|
:------------------------------------------------------------------------------------------|

:----------------------------------------------------------------------------12-----12-|
:-15-12h14p12-------------12-------------------------------------------------12-----12-|
:-------------15-12h14p12----15-14-12-14-12-----------------------12-14-(14b)---14b----|
:--------------------------------------------14-12-14-12----12-14----------------------|
:--------------------------------------------------------14----------------------------|
:--------------------------------------------------------------------------------------|

:-----12-----12-----12-|
:-----12-----12-----12-|
:-14b----14b----14b----|
:----------------------|
:----------------------|
:----------------------|


:-----12-----12-----12--15b-15b-15b-15b-15b-15b-15b~~~~--12--------------------------------|
:-----12-----12-----12--15b-15b-15b-15b-15b-15b-15b~~~~-----15--12h14p12-----12------------|
:-14b----14b----14b-------------------------------------------------------15----15-12h14p12|
:------------------------------------------------------------------------------------------|
:------------------------------------------------------------------------------------------|
:------------------------------------------------------------------------------------------|

:--------------------------------------------------------------------12----------------|
:-------------15-12h14p12-----------------------------------------12----12-------------|
:----12-14-12-------------15-12h14p12----------------------12-14b----------14~~-12~~~~-|
:-14----------------------------------14-12h14p12----12-14-----------------------------|
:-------------------------------------------------14-----------------------------------|
:--------------------------------------------------------------------------------------|



  yeah i'm drunk
:---------------------------------|
:---------------------------------|
:---------------------------------|
:---------------------9-9--8-7-6--|
:-7---5---2-----7--5--7-7--6-5-4--|
:-5---3---0-----5--3--0-0--0-0-0--|

  
:---------------------------------|
:---------------------------------|
:---------------------------------|
:---------------------------------|
:-7---5---2----7---5--7-5--2------|
:-5---3---0----5---3--5-3--0------|



       repeat
    schmidt value pack
eb:-----------------------|
Bb:-----------------------|
Gb:-----------------------|
Db:----9------9-----9---9-|
Ab:----7------7-----7---7-|
Eb:----0------0-----0---0-|
            

comments powered by Disqus
↑ Back to top | Zeke Tabs for Schmidt Value Pack. Lyrics for acoustic guitar and electric guitar. Tablatures and chords are parodies/interpretations of the original songs. You may use it for private study, scholarship, research or language learning purposes only