» » »

Runnin' Shine Tabs (ver.1)

Artists:  A B C D E F G H I J K L M N O P Q R S T U V W X Y Z # 

Runnin' Shine Tabs (ver.1)

Zeke
Rating:
0/5 (0 votes)

Hard to play? Try these video lessons and learn fast.
                runnin' shine


zeke






eb:----------------------------------------------------------------------------------------|
Bb:----------------------------------------------------------------------------------------|
Gb:----------------------------------------------------------------------------------------|
Db:----------------------------------------------------------------------------------------|
Ab:-7-7-------7-7-------7-7-------7-7-------7-7-----7-7-------7-7-------7-7-----7-7-------7|
Eb:-0-0-0-0-0-0-0-0-0-0-0-0-0-0-0-0-0-0-0-0-0-0-0-0-0-0-0-0-0-0-0-0-0-0-0-0-0-0-0-0-0-0-0-0|


eb:-----------------------------------------|
Bb:-----------------------------------------|
Gb:-----------------------------------------|
Db:-2-2-2-2-2-2-2-2-2-2-2-2-2-2-2-2-2-2-2-2-|
Ab:-0-0-0-0-0-0-0-0-0-0-0-0-0-0-0-0-0-0-0-0-|
Eb:-----------------------------------------|

eb:------------------------------------------------------------|
Bb:------------------------------------------------------------|
Gb:------------------------------------------------------------|
Db:-9-9-9-9-9-9-9-9--9--9-9-9-9-9-9-9-9--9--9-9-9-9-9-9-9-9--9-|
Ab:-7-7-7-7-7-7-7-7--7--7-7-7-7-7-7-7-7--7--7-7-7-7-7-7-7-7--7-|
Eb:-0-0-0-0-0-0-0-0--0--0-0-0-0-0-0-0-0--0--0-0-0-0-0-0-0-0--0-|


eb:----------------------|
Bb:----------------------|
Gb:----------------------|
Db:-9-9-------9-9--------|
Ab:-7-7--5-5--7-7--5/12--|
Eb:------3-3-------3/10--|


eb:------------------------------------------------------------|
Bb:------------------------------------------------------------|
Gb:------------------------------------------------------------|
Db:-9-9-9-9-9-9-9-9--9--9-9-9-9-9-9-9-7-8-9--9-9-9-9-9-9-9-9-9-|
Ab:-7-7-7-7-7-7-7-7--7--7-7-7-7-7-7-7-5-6-7--7-7-7-7-7-7-7-7-7-|
Eb:-0-0-0-0-0-0-0-0--0--0-0-0----------------0-0-0-0---------0-|

eb:-----------------------------------------|
Bb:-----------------------------------------|
Gb:-----------------------------------------|
Db:-2-2-2-2-2-2-2-2-2-2-2-2-2-2-2-2-2-2-2-2-|
Ab:-0-0-0-0-0-0-0-0-0-0-0-0-0-0-0-0-0-0-0-0-|
Eb:-----------------------------------------|

eb:------------------------------------------------------------|
Bb:------------------------------------------------------------|
Gb:------------------------------------------------------------|
Db:-9-9-9-9-9-9-9-9--9--9-9-9-9-9-9-9-9--9--9-9-9-9-9-9-9-9--9-|
Ab:-7-7-7-7-7-7-7-7--7--7-7-7-7-7-7-7-7--7--7-7-7-7-7-7-7-7--7-|
Eb:-0-0-0-0-0-0-0-0--0--0-0-0-0-0-0-0-0--0--0-0-0-0-0-0-0-0--0-|


eb:----------------------|
Bb:----------------------|
Gb:----------------------|
Db:-9-9-------9-9--------|
Ab:-7-7--5-5--7-7--5/12--|
Eb:------3-3-------3/10--|


eb:---------------------|
Bb:---------------------|
Gb:---------------------|
Db:-9-9-------9-9-------|
Ab:-7-7--5-5--7-7--5-5--|
Eb:------3-3-------3-3--|

solo
eb:---------------------12----------------------------------------------------------------|
Bb:-15bf------15b----------15p12-14p12----12----------------12-15p12-14p12----12----------|
Gb:------------------------------------15----15-12-14-12-14----------------15----15-12-14-|
Db:---------------------------------------------------------------------------------------|
Ab:---------------------------------------------------------------------------------------|
Eb:---------------------------------------------------------------------------------------|

eb:------------------------------------------12---------12----------|
Bb:---------------------------------------12-----12-15b----15bf~~~~-|
Gb:-12-14-12----------------12-14-12--14b---------------------------|
Db:----------14-12-14-12-14-----------------------------------------|
Ab:-----------------------------------------------------------------|
Eb:-----------------------------------------------------------------|

eb:-----12----------------------------------------------------------------|
Bb:-15b----15p12-14p12----12----------------12-15p12-14p12----12----------|
Gb:--------------------15----15-12-14-12-14----------------15----15-12-14-|
Db:-----------------------------------------------------------------------|
Ab:-----------------------------------------------------------------------|
Eb:-----------------------------------------------------------------------|

eb:-------------------------------------12---------12----------|
Bb:----------------------------------12-----12-15b----15bf~~~~-|
Gb:-12-14-12-----------12-14-12--14b---------------------------|
Db:----------14-12-14------------------------------------------|
Ab:------------------------------------------------------------|
Eb:------------------------------------------------------------|


eb:-----------------------------------------|
Bb:-----------------------------------------|
Gb:-----------------------------------------|
Db:-2-2-2-2-2-2-2-2-2-2-2-2-2-2-2-2-2-2-2-2-|
Ab:-0-0-0-0-0-0-0-0-0-0-0-0-0-0-0-0-0-0-0-0-|
Eb:-----------------------------------------|

eb:------------------------------------------------------------|
Bb:------------------------------------------------------------|
Gb:------------------------------------------------------------|
Db:-9-9-9-9-9-9-9-9--9--9-9-9-9-9-9-9-9--9--9-9-9-9-9-9-9-9--9-|
Ab:-7-7-7-7-7-7-7-7--7--7-7-7-7-7-7-7-7--7--7-7-7-7-7-7-7-7--7-|
Eb:-0-0-0-0-0-0-0-0--0--0-0-0-0-0-0-0-0--0--0-0-0-0-0-0-0-0--0-|


eb:----------------------|
Bb:----------------------|
Gb:----------------------|
Db:-9-9-------9-9--------|
Ab:-7-7--5-5--7-7--5/12--|
Eb:------3-3-------3/10--|

eb:-------------------------|
Bb:-------------------------|
Gb:-------------------------|
Db:-9-9-------9-9--------9/-|
Ab:-7-7--5-5--7-7--5/12--7/-|
Eb:------3-3-------3/10-----|


hillo son mex

herson
            
Hard to play? Try these video lessons and learn fast. | Correct




comments powered by Disqus
↑ Back to top | Tablatures and chords are parodies/interpretations of the original songs. You may use it for private study, scholarship, research or language learning purposes only