» » »

Zeke, Rodney Tabs (ver.1)

Artists:  A B C D E F G H I J K L M N O P Q R S T U V W X Y Z # 

Rodney Tabs (ver.1)

Zeke Tabs
 Rating:
4/5 (4 votes)
Rodney lessons Tabs too difficult? Try these video lessons and learn fast
                rodney


zeke






e:--------------------|
B:--------------------|
G:--------------------|
D:--------------------|
A:-7-7-7-7-7--5--7/-5-|
E:-0-0-0-0-0--3--5/-3-|


e:-------------------------------------------------------------------------------|
B:-------------------------------------------------------------------------------|
G:-------------------------------------------------------------------------------|
D:----------------------------------------------------------5-5-5-5-5--2-2-2-2-2-|
A:-7-7-7-7-7--8-7-7-7-7-7-7-7-7-7-7-8-7-7-7-7-7--7-7-7-7-7--3-3-3-3-3--0-0-0-0-0-|
E:-0-0-0-0-0--6-5-5-5-5-5-0-0-0-0-0-6-5-5-5-5-5--0-0-0-0-0-----------------------|


e:--------------------|
B:--------------------|
G:--------------------|
D:--------------------|
A:-7-7-7-7-7--5--7/-5-|
E:-0-0-0-0-0--3--5/-3-|

e:---------------------------------------|
B:---------------------------------------|
G:---------------------------------------|
D:-4-4-4-4-4--6-7-8--9-9-9-9-9--6-7-8--9-|
A:-2-2-2-2-2--4-5-6--7-7-7-7-7--4-5-6--7-|
E:---------------------------------------|


:-------|-------------------------------------|
:-------|-------------------------------------|
:-------|-------------------------------------|
:-------|-----------------------9-9-9-9-9-9-9-|
:-3-4-5-|-7-7-7-7-7--5-5-5-5-5--7-7-7-7-7-7-7-|
:-1-2-3-|-5-5-5-5-5--3-3-3-3-3--0-0-0-0-0-0-0-|

solo
e:-------------------------------------------------------------------------------------|
B:-15bf-12-15-12-15-12-15-12-------------------------------------12b--10b---8b--7b--5b-|
G:---------------------------15-12-14-12-14-12----12----12-14b---14b--12b--10b--9b--7b-|
D:---------------------------------------------14----14--------------------------------|
A:-------------------------------------------------------------------------------------|
E:-------------------------------------------------------------------------------------|

e:------------------------------------------------|
B:-----17-15b-17--12-15-12-15-12-15-12-15bf-------|
G:-14b--------------------------------------------|
D:------------------------------------------------|
A:------------------------------------------------|
E:------------------------------------------------|

e:--------------------|
B:--------------------|
G:--------------------|
D:--------------------|
A:-7-7-7-7-7--5--7/-5-|
E:-0-0-0-0-0--3--5/-3-|

e:---------------------|
B:---------------------|
G:---------------------|
D:-4-4-4-4-4--6-7-8--9-|
A:-2-2-2-2-2--4-5-6--7-|
E:---------------------|

e:--------------------|
B:--------------------|
G:--------------------|
D:--------------------|
A:-7-7-7-7-7--5--7/-5-|
E:-0-0-0-0-0--3--5/-3-|

e:-----------------------------------------|
B:-----------------------------------------|
G:-----------------------------------------|
D:-4-4-4-4-4-4-4-4-4-4-4-4-4-4-4--6-7-8--9-|
A:-2-2-2-2-2-2-2-2-2-2-2-2-2-2-2--4-5-6--7-|
E:-----------------------------------------|
            
Submit corrections

comments powered by Disqus
↑ Back to top | Zeke Tabs for Rodney. Lyrics for acoustic guitar and electric guitar. Tablatures and chords are parodies/interpretations of the original songs. You may use it for private study, scholarship, research or language learning purposes only