>
 >
Ride With Zeke

Ride With Zeke Guitar Tabs

Zeke - Ride With Zeke chords, tabs, tablatures, lyrics

Guitar lessons | Add/correct | Request | Top 50 tabs Artists:  A B C D E F G H I J K L M N O P Q R S T U V W X Y Z 0-9

Ride With Zeke Guitar Tabs – Zeke

CD, Sheet music, Poster

Do you like Ride With Zeke? Share with your friends now
Tabs
ride with zeke


zeke






eb:-----------------------------------|
Bb:-----------2--2b~~~~~--------------|
Gb:-----------3--3b~~~~~--------------|
Db:-2---------2-----------0/10/---2---|
Ab:-2---------0-------------------2---|
Eb:-0-----------------------------0---|



eb:------------------------------|
Bb:------------------------------|
Gb:------------------------------|
Db:------------------5--5-5-5-5--|
Ab:-2--2-2---5--5-5--3--3-3-3-3--|
Eb:-0--0-0---3--3-3--------------|

eb:------------------------------------|
Bb:------------------------------------|
Gb:------------------------------------|
Db:------------------5--5-5-5-5--7-7-7-|
Ab:-2--2-2---5--5-5--3--3-3-3-3--5-5-5-|
Eb:-0--0-0---3--3-3--------------------|

verse
   ride with zeke...
eb:------------------------------|
Bb:------------------------------|
Gb:------------------------------|
Db:------------------5--5-5-5-5--|
Ab:-2--2-2---5--5-5--3--3-3-3-3--|
Eb:-0--0-0---3--3-3--------------|

eb:------------------------------------|
Bb:------------------------------------|
Gb:------------------------------------|
Db:------------------5--5-5-5-5--7-7-7-|
Ab:-2--2-2---5--5-5--3--3-3-3-3--5-5-5-|
Eb:-0--0-0---3--3-3--------------------|


eb:------------------------------------------------|
Bb:------------------------------------------------|
Gb:------------------------------------------------|
Db:-9-9-9-9-9-9-9-9-9-9-9-9-9-9-9-9-9-9-9-9-9------|
Ab:-7-7-7-7-7-7-7-7-7-7-7-7-7-7-7-7-7-7-7-7-7--5-5-|
Eb:--------------------------------------------3-3-|

eb:------------------------------------------------|
Bb:------------------------------------------------|
Gb:------------------------------------------------|
Db:-9-9-9-9-9-9-9-9-9-9-9-9-9-9-9-9-9-9-9-9-9--5-5-|
Ab:-7-7-7-7-7-7-7-7-7-7-7-7-7-7-7-7-7-7-7-7-7--3-3-|
Eb:------------------------------------------------|

eb:-----------------------------------------------------------------------------|
Bb:-----------------------------------------------------------------------------|
Gb:-----------------------------------------------------------------------------|
Db:-9-9-9-9-9-9-9-9-9-9-9-9-9-9-9-9-9-9-9-9-9-----------------------------------|
Ab:-7-7-7-7-7-7-7-7-7-7-7-7-7-7-7-7-7-7-7-7-7--5-5--7-7-7-7-7-7-7-7-7-7-7-7-7-7-|
Eb:--------------------------------------------3-3--5-5-5-5-5-5-5-5-5-5-5-5-5-5-|

verse
   ride with zeke...
eb:------------------------------|
Bb:------------------------------|
Gb:------------------------------|
Db:------------------5--5-5-5-5--|
Ab:-2--2-2---5--5-5--3--3-3-3-3--|
Eb:-0--0-0---3--3-3--------------|

eb:------------------------------------|
Bb:------------------------------------|
Gb:------------------------------------|
Db:------------------5--5-5-5-5--7-7-7-|
Ab:-2--2-2---5--5-5--3--3-3-3-3--5-5-5-|
Eb:-0--0-0---3--3-3--------------------|

                        fdbk       fdbk
eb:----------------------------------------------------------------------|
Bb:----------2--2b~~~~~--------------------------------------------------|
Gb:----------3--3b~~~~~--------------------------------------------------|
Db:---2------2-------------------2-------2---0/10/0--2--5-5-5-5--7-7-7-7-|
Ab:---2------0-------------------2-------2-----------2--3-3-3-3--5-5-5-5-|
Eb:---0--------------------------0-------0-----------0-------------------|

solo
      repeat            repeat
eb:-12b-12b-12b-12b-|-----12-------|-12-15-12-15-12----------------------------------------|
Bb:-15b-15b-15b-15b-|-15b----15p12-|----------------15-12-14-12----------------------------|
Gb:-----------------|--------------|----------------------------15-12-14-12----------------|
Db:-----------------|--------------|----------------------------------------14-12-14-12----|
Ab:-----------------|--------------|----------------------------------------------------14-|
Eb:-----------------|--------------|-------------------------------------------------------|


eb:----------------------------------|
Bb:----------------------------------|
Gb:----------------------------------|
Db:----------------------------------|
Ab:-12-14-12-------------------------|
Eb:-----------15-12-14-12-14-14~~~~~-|


eb:-------------------------------------|
Bb:-------------------------------------|
Gb:-------------------------------------|
Db:-4-4-4-4-4-4-4-4-4--7-7-7-7--9-9-9-9-|
Ab:-2-2-2-2-2-2-2-2-2--5-5-5-5--7-7-7-7-|
Eb:-------------------------------------|

eb:--------------------------------------|
Bb:--------------------------------------|
Gb:--------------------------------------|
Db:-4-4-4-4-4-4-4-4-4--7-7-7-7-7-7-7-7-7-|
Ab:-2-2-2-2-2-2-2-2-2--5-5-5-5-5-5-5-5-5-|
Eb:--------------------------------------|

eb:-------------------------------------|
Bb:-------------------------------------|
Gb:-------------------------------------|
Db:-4-4-4-4-4-4-4-4-4--7-7-7-7--9-9-9-9-|
Ab:-2-2-2-2-2-2-2-2-2--5-5-5-5--7-7-7-7-|
Eb:-------------------------------------|

eb:--------------------------------------|
Bb:--------------------------------------|
Gb:--------------------------------------|
Db:-4-4-4-4-4-4-4-4-4--2-2-2-2-2-2-2-2-2-|
Ab:-2-2-2-2-2-2-2-2-2--0-0-0-0-0-0-0-0-0-|
Eb:--------------------------------------|

verse
   ride with zeke...
eb:------------------------------|
Bb:------------------------------|
Gb:------------------------------|
Db:------------------5--5-5-5-5--|
Ab:-2--2-2---5--5-5--3--3-3-3-3--|
Eb:-0--0-0---3--3-3--------------|

eb:------------------------------------|
Bb:------------------------------------|
Gb:------------------------------------|
Db:------------------5--5-5-5-5--7-7-7-|
Ab:-2--2-2---5--5-5--3--3-3-3-3--5-5-5-|
Eb:-0--0-0---3--3-3--------------------|


eb:------------------------------------|
Bb:------------------------------------|
Gb:------------------------------------|
Db:------------------------------------|
Ab:-2--2--2-2-2-2-2-2-2-2-2-2-2-2---2--|
Eb:-0--0--0-0-0-0-0-0-0-0-0-0-0-0---0--|


hillo son mex

herson





Comments


Popular Zeke tabs & chords
Daytime Dilemma 1 Tabs
Go Tabs
Horror At Red Hook 1 Tabs
Killer Inside Tabs
Lawson Tabs
Malibu Tabs
Ramirez Tabs
Raped Tabs
Revolution Tabs
Telepath Boy Tabs


Song lyrics



↑ Back to top | Tablatures and chords are parodies/interpretations of the original songs. You may use it for private study, scholarship, research or language learning purposes only
© 2014 AZChords.com Contact us | Privacy policy | DMCA | Add/correct tabs | Request tabs | Top 50 tabs