» » »

Zeke, Rhiannon Tabs (ver.1)

Artists:  A B C D E F G H I J K L M N O P Q R S T U V W X Y Z # 

Rhiannon Tabs (ver.1)

Zeke Tabs
Rating:
0/5 (0 votes)
Rhiannon lessons Tabs too difficult? Try these video lessons and learn fast
                rhiannon


zeke





    fdbk
eb:-----------------|
Bb:-----------------|
Gb:-----------------|
Db:-----------------|
Ab:-----------------|
Eb:-----------------|

  2 times
eb:--------------------------------------------------------------------|
Bb:--------------------------------------------------------------------|
Gb:--------------------------------------------------------------------|
Db:-7-9-7--10-10--7-9-7-7--9-----7-7--7--7-9-7-10-10--7-9--7-7--7-7----|
Ab:-0-0-0--0--0---0-0-0-0--0--0--0-0--0--0-0-0-0--0---0-0--0-0--0-0----|
Eb:--------------------------------------------------------------------|

verse
eb:--------------------------------------------------------------------|
Bb:--------------------------------------------------------------------|
Gb:--------------------------------------------------------------------|
Db:-7-9-7--10-10--7-9-7-7--9-----7-7--7--7-9-7-10-10--7-9--7-7--7-7----|
Ab:-0-0-0--0--0---0-0-0-0--0--0--0-0--0--0-0-0-0--0---0-0--0-0--0-0----|
Eb:--------------------------------------------------------------------|

i only got 20 secs of this song so thats far i could get, its hard to find this song, so if
i do find it some day, i'll prolly finish it.
            

comments powered by Disqus
↑ Back to top | Zeke Tabs for Rhiannon. Lyrics for acoustic guitar and electric guitar. Tablatures and chords are parodies/interpretations of the original songs. You may use it for private study, scholarship, research or language learning purposes only