» » »

Zeke, Revolution Reprise Bass tabs (ver.1)

Artists:  A B C D E F G H I J K L M N O P Q R S T U V W X Y Z # 

Revolution Reprise Bass tabs (ver.1)

Zeke Tabs
Rating:
0/5 (0 votes)
Revolution Reprise lessons Tabs too difficult? Try these video lessons and learn fast
                
"Revolution Reprise"

Zeke
I don't know how correct this is but it's my take on it. I found it quite hard and there is
probably a better way to tab it so any comments would be great.

Intro
Hold the note for the start.

G-------
D-------
A-6-----
E-------

Part 1
                  X2
G-------------------
D-------------------
A--6-9-6-12-11-9-6--
E-------------------

Part 2
                  X1
G-------------------
D--6-9-6-12-11-9-6--
A-------------------
E-------------------

Part 3
                  X1
G-------------------
D-------------------
A--6-9-6-12-11-9-6--
E-------------------


Chorus

G------------------------------------------------------------------ I'm not sure about the rhythm 
D------------------------------------------------------------------ here so don't blame me for                                                                .
A----------------------------------6--6-6--6--6-6--6--6-6-6--6--6-6 this
E--6--6-6--6--6-6--4--4-4--4--4-4----------------------------------


Then play Parts 1, 2 and 3 again and the chorus. Then there is this soloey bit and i think it
goes like this.

                                      X2
G---------------------------------------
D---------------------------8-11-11-13--
A--6-9-6-12-11-9-11-6-6-9-6-------------
E---------------------------------------

                                      X1
G--------------------------8-11-11-13---
D--6-9-6-12-11-9-11-6-6-9-6-------------
A---------------------------------------
E---------------------------------------
                                      X1
G---------------------------------------
D---------------------------8-11-11-13--
A--6-9-6-12-11-9-11-6-6-9-6-------------
E---------------------------------------

G------------------------------------------------------------------ 
D------------------------------------------------------------------
A----------------------------------6--6-6--6--6-6--6--6-6-6--6--6-6
E--6--6-6--6--6-6--4--4-4--4--4-4----------------------------------
            
Submit corrections

comments powered by Disqus
↑ Back to top | Zeke Bass for Revolution Reprise. Lyrics for acoustic guitar and electric guitar. Tablatures and chords are parodies/interpretations of the original songs. You may use it for private study, scholarship, research or language learning purposes only