>
 >
Revolution

Revolution Guitar Tabs

Zeke - Revolution chords, tabs, tablatures, lyrics

Guitar lessons | Add/correct | Request | Top 50 tabs Artists:  A B C D E F G H I J K L M N O P Q R S T U V W X Y Z 0-9

Revolution Guitar Tabs – Zeke

CD, Sheet music, Poster

Do you like Revolution? Share with your friends now
Tabs
revolution


zeke






e:-------------------------|
B:-------------------------|
G:-------------------------|
D:-------------------5-5-5-|
A:-7-7-7-7-7-7-7--5--3-3-3-|
E:-5-5-5-5-5-5-5--3--------|

verse
e:-------------------------|
B:-------------------------|
G:-------------------------|
D:-------------------5-5-5-|
A:-7-7-7-7-7-7-7--5--3-3-3-|
E:-5-5-5-5-5-5-5--3--------|

e:-----------------------------------------|
B:-----------------------------------------|
G:-----------------------------------------|
D:-7-7-7-7-7-7-7-7-7-7-7-7-7-7-7-7-7-7-----|
A:-5-5-5-5-5-5-5-5-5-5-5-5-5-5-5-5-5-5--7--|
E:--------------------------------------5--|

e:-------------------------|
B:-------------------------|
G:-------------------------|
D:-------------------5-5-5-|
A:-7-7-7-7-7-7-7--5--3-3-3-|
E:-5-5-5-5-5-5-5--3--------|

e:--------------------------------------|
B:--------------------------------------|
G:--------------------------------------|
D:-7-7-7-7-7-7-7-7-7-7-7-7-7-7-7-7-7-7--|
A:-5-5-5-5-5-5-5-5-5-5-5-5-5-5-5-5-5-5--|
E:--------------------------------------|

e:-------------------------|
B:-------------------------|
G:-------------------------|
D:-------------------5-5-5-|
A:-7-7-7-7-7-7-7--5--3-3-3-|
E:-5-5-5-5-5-5-5--3--------|

e:-----------------------|
B:-----------------------|
G:-----------------------|
D:-9-9-9-9-9-9-9-9-9-9-9-|
A:-7-7-7-7-7-7-7-7-7-7-7-|
E:-----------------------|


revolution
:-----------------|
:-----------------|
:-----------------|
:-2-2-2-2-2-5-7-5-|
:-0-0-0-0-0-3-5-3-|
:-----------------|


e:---------------|
B:---------------|
G:---------------|
D:-9-8-7--5--7-8-|
A:-7-6-5--3--5-6-|
E:---------------|

e:--------------------|
B:--------------------|
G:--------------------|
D:-2-2-2-2-2-2--8-7-5-|
A:-0-0-0-0-0-0--6-5-3-|
E:--------------------|


:-----------|
:--------5--|
:----3---4--|
:-2--2---2--|
:-2--2---0--|
:-0--0------|

e:---------------------------------------------------------------------------|
B:---------------------------------------------------------------------------|
G:---------------------------------------------------------------------------|
D:-2--2-2--2-2-2--2--2-2--2-2-2--2--2-2--2-2-2--2--2-2--2-2-2--2--2-2--2-2-2-|
A:-2--2-2--2-2-2--2--2-2--2-2-2--2--2-2--2-2-2--2--2-2--2-2-2--2--2-2--2-2-2-|
E:-0--0-0--0-0-0--0--0-0--0-0-0--0--0-0--0-0-0--0--0-0--0-0-0--0--0-0--0-0-0-|


:-------------------------------------------------------|-------------12-------------------|
:-------------------------------------------------------|--15bf~~~~~-----15-12h15p12h15p12-|
:-14b~~~~~~~~---14b~~~~~~~~---14b~~~~~~~~---14b~~~~~~~~-|----------------------------------|
:-------------------------------------------------------|----------------------------------|
:-------------------------------------------------------|----------------------------------|
:-------------------------------------------------------|----------------------------------|


e:-------------------12/--|
B:-12h15p12h15p12h15------|
G:------------------------|
D:------------------------|
A:------------------------|
E:------------------------|

e:---------------------------------------------|
B:---------------------------------------------|
G:---------------------------------------------|
D:-2--2-2--2-2-2--2--2-2--2-2-2--2--2-2--2-2-2-|
A:-2--2-2--2-2-2--2--2-2--2-2-2--2--2-2--2-2-2-|
E:-0--0-0--0-0-0--0--0-0--0-0-0--0--0-0--0-0-0-|

e:---------------------------|
B:---------------------------|
G:---------------------------|
D:-9-------9-------9-------9-|
A:-7-------7-------7-------7-|
E:-0-00000-0-00000-0-00000-0-|

                                               fdbk
:------------------------------------------------------------|
:------------------------------------------------------------|
:------------------------------------------------------------|
:-9-9-9-9-9-9-9-9-9-9-9-9-9-9-9-9-9-9-9----------------------|
:-7-7-7-7-7-7-7-7-7-7-7-7-7-7-7-7-7-7-7----------------------|
:-0-0-0-0-0-0-0-0-0-0-0-0-0-0-0-0-0-0-0----------------------|





Comments


Popular Zeke tabs & chords
Death Alley Tabs
Evil Dead Tabs
I Believe In Miracles Tabs
Kill The King Tabs
Liar Tabs
Mert Tabs
Ramirez Tabs
Rodney Tabs
Schmidt Value Pack Tabs
Telepath Boy 1 Tabs


Song lyrics



↑ Back to top | Tablatures and chords are parodies/interpretations of the original songs. You may use it for private study, scholarship, research or language learning purposes only
© 2014 AZChords.com Contact us | Privacy policy | DMCA | Add/correct tabs | Request tabs | Top 50 tabs